Red Hot Chili Peppers - Get Up And Jump Chords & Tabs

 

Get Up And Jump Chords & Tabs

Red Hot Chili Peppers Chords & Tabs

Version: 4 Type: Bass Tab 0 ratings
1 star 2 stars 3 stars 4 stars 5 stars
comments

Get Up And Jump Bass Tab

   
I learned how to play this by watching Flea "The Man"
over and over again and it sounds really damn good.

[ Tab from: http://www.guitartabs.cc/tabs/r/red_hot_chili_peppers/get_up_and_jump_btab_ver_4.html ]
G|---------------------------------------------------------------------------
D|-----5-------3--------5------3h5-----------5-------3-------5-------2h3----
A|---------------------------------------------------------------------------
E|--33---x-x-----x-x-----x-x----------3-3------x-x------x-x-----x-x---------
    TT P  T T  P  T T   P T T  P       T T   P  T T  P   T T  P  T T P
G|-------------------------------------------------------------------2h3-----
D|-----5--------3-------5------3h5----------5--------3-------5---------------
A|---------------------------------------------------------------------------
E|-3-3----x-x-----x-x-----x-x----------3-3------x-x-----x-x------x-x---------

| /  slide up
| \  slide down
| h  hammer-on
| p  pull-off
| ~  vibrato
| +  harmonic
| x  Mute note
===============================================================================
Comments