Red Hot Chili Peppers - Get On Top Chords & Tabs

 

Get On Top Chords & Tabs

Red Hot Chili Peppers Chords & Tabs

Version: 6 Type: Tab 0 ratings
1 star 2 stars 3 stars 4 stars 5 stars
comments

Get On Top Tab

Get on top
Red hot chili peppers
Live in Hyde Park, disc 1
Date: 6 July 2005 2:51AM

Tabbed by Knut Zetterstrøm


With distortion and a cry baby
e|-------------------------5-8-12b-10~--10-10-15-13-12-13---------15--17---|
B|-6/10-8-6-h8-p6----6\--6--------------------------------15~--13----------|
G|----------------7~-------------------------------------------------------|
D|-------------------------------------------------------------------------|
A|-------------------------------------------------------------------------|
E|-------------------------------------------------------------------------|
[ Tab from: http://www.guitartabs.cc/tabs/r/red_hot_chili_peppers/get_on_top_tab_ver_6.html ]
e|-15-17-15-17-15-17-15-17-15-17-15-17-15-17-15-17--17p15----17p15---------|
B|-------------------------------------------------------h17-------h17-----|
G|-------------------------------------------------------------------------|
D|-------------------------------------------------------------------------|
A|-------------------------------------------------------------------------|
E|-------------------------------------------------------------------------|

e|--17p15----17---19b-19b-19~--------|
B|-------h17-------------------------|
G|-----------------------------------|
D|-----------------------------------|And then back to the verse of the song
A|-----------------------------------|
E|-----------------------------------|

Well, I'm not 100% sure if the last and fast part of this solo is correct, But the first 
I am sure is perfect!
Enjoy
Comments