Red Hot Chili Peppers - Funky Monks Chords & Tabs

 

Funky Monks Chords & Tabs

Red Hot Chili Peppers Chords & Tabs

Version: 5 Type: Tab 0 ratings
1 star 2 stars 3 stars 4 stars 5 stars
comments

Funky Monks Tab

   
Funky Monks - Red Hot Chili Peppers

Transcribed by dorgin


Tuning:EADGBe

| /  slide up
| \  slide down
| h  hammer-on
| p  pull-off
| ~  vibrato
| +  harmonic
| x  Mute note


Song's Structure:

Intro
Pre-Verse 
Verse
Chorus
Verse
Chorus
Interlude
Verse
Chorus
Outro


Intro


e|-----------------------------|---------------------------------------------|
B|----------3------3--3--3-----|---------3---------------5--5----------------|
G|----------3------3--3--3-----|---------3---------------5--5--3/5~---3------|
D|--------------5------------5-|--3-h-5------5-p-3-p-0--------------------5h-|
A|-----------------------------|---------------------------------------------|
E|------3----------------------|---------------------------------------------|


e|-------------------------------------------------------------------|-------|
B|------------3------3--3--3-----------------------------------------|-------|
G|------------3------3--3--3-h-5-p-3---------------------------------|-------|
D|----------------5--------------------5---3-h-5-p-3-----------------|-------|
A|------------------------------------------------------5---3--------|-------|
E|-----1-h-3-----------------------------------------------------6h--|-1---1-|


Pre-Verse

e|----------------------------|--------------------------|
B|----------3------3--3--3----|----------3----5--5--3----|
G|----------3------3--3--3----|----------3----5--5--3----|
D|--------------5-----------5-|--3-h-5-----5-------------|
A|----------------------------|--------------------------|
E|---1-h-3--------------------|--------------------------|

[ Tab from: http://www.guitartabs.cc/tabs/r/red_hot_chili_peppers/funky_monks_tab_ver_5.html ]
e|----------------------------|--------------------------|
B|----------3------3--3--3----|----------3----5--5-------|
G|----------3------3--3--3----|----------3----5--5--3/5~-|
D|--------------5-----------5-|--3-h-5-----5-------------|
A|----------------------------|--------------------------|
E|---1-h-3--------------------|--------------------------|


Verse 

  x8
e|----------------------------|--------------------------|
B|----------3------3--3--3----|----------3----5--5--3----|
G|----------3------3--3--3----|----------3----5--5--3----|
D|--------------5-----------5-|--3-h-5-----5-------------|
A|----------------------------|--------------------------|
E|---1-h-3--------------------|--------------------------|

There are no monks in this band...


Chorus

                                            x3
e|----------------------------------0----------|-----------------------------|
B|--1---4--4p3----4--3\1-----------------------|----4--4p3---3--3\1---4------|
G|--------------------------2---1-------2------|-----------------------------|
D|---------------------------------------------|-----------------------------|
A|---------------------------------------------|-----------------------------|
E|---------------------------------------------|-----------------------------|


e|-------------------------|
B|---3-p-1--3-p-1---2--2---|
G|-------------------------|
D|-------------------------|
A|-------------------------|
E|-------------------------|

You are on the road...


Verse+Chorus

Same as before




I haven't figured out the interlude and the outro, but this is still the longest tab
for this song on UG.

Hope you enjoy.

Rock on!
Comments