Red Hot Chili Peppers - Funky Monks Chords & Tabs

 

Funky Monks Chords & Tabs

Red Hot Chili Peppers Chords & Tabs

Version: 4 Type: Tab 0 ratings
1 star 2 stars 3 stars 4 stars 5 stars
comments

Funky Monks Tab

FUNKY MONKS



----------------|--------------------------------------------------
---3f---3-3-3---|-----3f---------5b(6)--5--------------------------
---3f---3-3-3---|-----3f---------5b(6)--5-(3)/5\3\0----------------
------5-------5-|-3/5----5\3\0-------------------------------------
----------------|--------------------------------------------------
-3--------------|--------------------------------------------------
    ^f indicates 'fingerstyle'    ^'Quick bend'
     as it is marked; interpret
     as you will
[ Tab from: http://www.guitartabs.cc/tabs/r/red_hot_chili_peppers/funky_monks_tab_ver_4.html ]
----------------------|-----------------------0-------------------
-----3f---3-3-3-------|-----------------5b(6)-1-3-----------------
-----3f---3-3-3/5\3---|-----------------5b(6)---3b(4)-------------
--------5-----------5-|-3/5\3-------------------------------------
----------------------|-------5--3\1------------------------------
-1/3------------------|-------------------------------------------
                                        ^^^^Guitar two; these
                                        are quick bends also



Comments