Red Hot Chili Peppers - Fortune Faded Chords & Tabs

 

Fortune Faded Chords & Tabs

Red Hot Chili Peppers Chords & Tabs

Version: 8 Type: Tab 0 ratings
1 star 2 stars 3 stars 4 stars 5 stars
comments

Fortune Faded Tab

   
Author/Artist: Red Hot Chili Peppers
Title: Fortune Faded
Album: Greatest Hits
Transcribed by: KillRoy Ver 3.0
Email: cw_brent@telus.net

This I think is a fairly accurate tab for the Chili Peppers' Fortune Faded,
questions, comments, e-mail me.

Intro:

     F#                                  
e-|-----------------------------------|-----------------------------------|-
B-|--2-2-2-2-2-2-2-2-2-2-2-2-2-2-2-2--|--2-2-2-2-2-2-2-2-2-2-2-2-2-2-2-2--|-
G-|--3-3-3-3-3-3-3-3-3-3-3-3-3-3-3-3--|--3-3-3-3-3-3-3-3-3-3-3-3-3-3-3-3--|-
D-|--4-4-4-4-4-4-4-4-4-4-4-4-4-4-4-4--|--4-4-4-4-4-4-4-4-4-4-4-4-4-4-4-4--|-
A-|--4-4-4-4-4-4-4-4-4-4-4-4-4-4-4-4--|--4-4-4-4-4-4-4-4-4-4-4-4-4-4-4-4--|-
E-|--2-2-2-2-2-2-2-2-2-2-2-2-2-2-2-2--|--2-2-2-2-2-2-2-2-2-2-2-2-2-2-2-2--|-

     
e-|-----------------------------------|-----------------------------------|-
B-|--2-2-2-2-2-2-2-2-2-2-2-2-2-2-2-2--|--2-2-2-2-2-2-2-2-2-2-2-2-2-2-2-2--|-
G-|--3-3-3-3-3-3-3-3-3-3-3-3-3-3-3-3--|--3-3-3-3-3-3-3-3-3-3-3-3-3-3-3-3--|-
D-|--4-4-4-4-4-4-4-4-4-4-4-4-4-4-4-4--|--4-4-4-4-4-4-4-4-4-4-4-4-4-4-4-4--|-
A-|--4-4-4-4-4-4-4-4-4-4-4-4-4-4-4-4--|--4-4-4-4-4-4-4-4-4-4-4-4-4-4-4-4--|-
E-|--2-2-2-2-2-2-2-2-2-2-2-2-2-2-2-2--|--2-2-2-2-2-2-2-2-2-2-2-2-2-2-2-2--|-



Fig. 1   (Intro Solo)


     Bm    
e-|------------------------|------------------------|-
B-|------------------------|------------------------|-
G-|---------11-------------|-------11---------------|-
D-|--9------------11----9--|--9--------11----9------|-
A-|------------------------|------------------------|-
E-|------------------------|------------------------|-
     

e-|-----------------------------|--9------9------9------|-
B-|--10-----10----10------------|-----------------------|-
G-|------11----11-----11--------|-----------------------|-
D-|-----------------------------|-----------------------|-
A-|-----------------------------|-----------------------|-
E-|-----------------------------|-----------------------|-


e-|------------------------|------------------------|-
B-|------------------------|------------------------|-
G-|---------11-------------|-------11---------------|-
D-|--9------------11----9--|--9--------11----9------|-
A-|------------------------|------------------------|-
E-|------------------------|------------------------|-


e-|----------------------|---------------------------|-
B-|--10------------------|--10-----------------------|-
G-|----------11----------|----------11--------(11)\--|-
D-|----------------------|---------------------------|-
A-|----------------------|---------------------------|-
E-|----------------------|---------------------------|-



Fig. 2  (Verse)


     Bm                             Bm
e-|------------------------------|-------------------------------|-
B-|------------------------------|-------------------------------|-
G-|------------(Rest)------------|-------------(Rest)------------|-
D-|------------------------------|-------------------------------|-
A-|------------------------------|-------------------------------|-
E-|------------------------------|-------------------------------|-

[ Tab from: http://www.guitartabs.cc/tabs/r/red_hot_chili_peppers/fortune_faded_tab_ver_8.html ]
     D                       A 
e-|-----------------------|---9--9--9--9-----9--9--9--9-----9\----|-
B-|--7--x-7--x-7----------|--10-10-10-10----10-10-10-10----10\----|-
G-|--7--x-7--x-7----------|---9--9--9--9-----9--9--9--9-----9\----|-
D-|--7--x-7--x-7----------|---------------------------------------|-
A-|--5----5----5----------|---------------------------------------|-
E-|-----------------------|---------------------------------------|-


     Bm                             Bm 
e-|------------------------------|-------------------------------|-
B-|------------------------------|-------------------------------|-
G-|------------(Rest)------------|-------------(Rest)------------|-
D-|------------------------------|-------------------------------|-
A-|------------------------------|-------------------------------|-
E-|------------------------------|-------------------------------|-


     D                       A
e-|-----------------------|---9--9--9--9-----9--9--9--9--9--9--9--9--9--9--|-
B-|--7--x-7--x-7----------|--10-10-10-10----10-10-10-10-10-10-10-10-10-10--|-
G-|--7--x-7--x-7----------|---9--9--9--9-----9--9--9--9--9--9--9--9--9--9--|-
D-|--7--x-7--x-7----------|------------------------------------------------|-
A-|--5----5----5----------|------------------------------------------------|-
E-|-----------------------|------------------------------------------------|-
leads back into intro solo with variations.


Fig. 3  (Chorus) Not exact strumming pattern but you get the idea.


     A                D            G
e-|--5----5--5-5-5-5---------5--|--3----3--3-3--3-3--3-3-3-3--|-
B-|--5----5--5-5-5-5--7----x-5--|--3----3--3-3--3-3--3-3-3-3--|-
G-|--6----6--6-6-6-6--7----x-6--|--4----4--4-4--4-4--4-4-4-4--|-
D-|--7----7--7-7-7-7--7----x-7--|--5----5--5-5--5-5--5-5-5-5--|-
A-|--7----7--7-7-7-7--5------7--|--5----5--5-5--5-5--5-5-5-5--|-
E-|--5----5--5-5-5-5---------5--|--3----3--3-3--3-3--3-3-3-3--|-

     
     Bm                   
e-|--7----7--7-7-7-7--7--7--7-7--|--7-7--7--7--7-7-7-7--7--7--|-
B-|--7----7--7-7-7-7--7--7--7-7--|--7-7-10--7--7-7-7-7-10--7--|-
G-|--7----7--7-7-7-7--7--7--7-7--|--7-7--7--7--7-7-7-7--7--7--|-
D-|--9----9--9-9-9-9--9--9--9-9--|--9-9--9--9--9-9-9-9--9--9--|-
A-|--9----9--9-9-9-9--9--9--9-9--|--9-9--9--9--9-9-9-9--9--9--|-
E-|--7----7--7-7-7-7--7--7--7-7--|--7-7--7--7--7-7-7-7--7--7--|-


     A                D            G
e-|--5----5--5-5-5-5---------5--|--3----3--3-3--3-3--3-3-3-3--|-
B-|--5----5--5-5-5-5--7----x-5--|--3----3--3-3--3-3--3-3-3-3--|-
G-|--6----6--6-6-6-6--7----x-6--|--4----4--4-4--4-4--4-4-4-4--|-
D-|--7----7--7-7-7-7--7----x-7--|--5----5--5-5--5-5--5-5-5-5--|-
A-|--7----7--7-7-7-7--5------7--|--5----5--5-5--5-5--5-5-5-5--|-
E-|--5----5--5-5-5-5---------5--|--3----3--3-3--3-3--3-3-3-3--|-


     Bm
e-|--7--7-7--7--7----7--7--7--|----7--7--7--------------------|-
B-|--7--7-7--7--7----7--7--7--|----7--7--7--------------------|-
G-|--7--7-7--7--7----7--7--7--|----7--7--7--------------------|-
D-|--9--9-9--9--9----9--9--9--|----9--9--9--------------------|-
A-|--9--9-9--9--9----9--9--9--|----9--9--9--------------------|-
E-|--7--7-7--7--7----7--7--7--|----7--7--7--------------------|-

Hope you guys enjoy my work.
Comments