Red Hot Chili Peppers - Fortune Faded Chords & Tabs

 

Fortune Faded Chords & Tabs

Red Hot Chili Peppers Chords & Tabs

Version: 7 Type: Tab 0 ratings
1 star 2 stars 3 stars 4 stars 5 stars
comments

Fortune Faded Tab

          FORTUNE FADED - Red Hot Chili Peppers (Greatest Hits 2003)
____________________________________________________________________________

Tabbed by: -> Anto Himself <-
Email: tonidrums@aol.com
MSN: tonidrums@aol.com

He play on a standard tuned guitar, with overdrive (or a little ampli distortion with reverb).

I never seen a corect tab for this song here, so I'll try to tell you what I
play, it sounds good, like the original song. Have fun by playing that. Funky !

-> INTRO __________________________________________________________________

e|-------------------------------------------------------------------------|
B|-------------------------------------------------------------------------|
G|-3333--------------------------------------------------------------------|
D|-4444--------------------------------------------------------------------|
A|-4444--------------------------------------------------------------------|
E|-2222--------------------------------------------------------------------|

Play 16 times (listen to the song)

-> Verse 1 ________________________________________________________________

-> Intro __________________________________________________________________

e|-------------------------------------------------------9------9------9---|
B|---------------------------------10---10---10----------------------------|
G|------11------------11--------------11---11---11-------------------------|
D|-9-------11---9-9-9----11---9--------------------------------------------|
A|-------------------------------------------------------------------------|
E|-------------------------------------------------------------------------|

e|-------------------------------------------------------------------------|
B|------------------------------------10----------------10-----------------|
G|-----11-------------11-----------------------11------------------11\-----|
D|-9-------11---9-9-9----11---9--------------------------------------------|
A|-------------------------------------------------------------------------|
E|-------------------------------------------------------------------------|

-> 1st Time _______________________________________________________________

e|---------------------------------------------------9999---9--------------|
B|---------------------------------------------------9999---9--------------|
G|---------------------------7----7----7------7------9999---9------7-------|
D|-x-x---x-x---x-x---x-x-----7----7----7------7------7777---7------7-------|
A|-x-x---x-x---x-x---x-x-----5----5----5------5------7777---7------5-------|
E|-x-x---x-x---x-x---x-x-----5----5----5------5------7777---7------5-------|

e|---------------------------------------------------9999---9------9-9-9---|
B|---------------------------------------------------9999---9------9-9-9---|
G|---------------------------7----7----7------7------9999---9------9-9-9---|
D|-x-x---x-x---x-x---x-x-----7----7----7------7------7777---7------7-7-9---|
A|-x-x---x-x---x-x---x-x-----5----5----5------5------7777---7------7-7-7---|
E|-x-x---x-x---x-x---x-x-----5----5----5------5------7777---7------7-7-7---|

e|-------------------------------------------------------------------------|
B|------------------------------------10------------------10---------------|
G|------11------------11------------------------11------------------11\----|
D|-9-------11---9-9-9----11---9--------------------------------------------|
A|-------------------------------------------------------------------------|
E|-------------------------------------------------------------------------|

-> 2nd Time _______________________________________________________________

e|---------------------------------------------------9999---9--------------|
B|---------------------------------------------------9999---9--------------|
G|---------------------------7----7----7------7------9999---9------7-------|
D|-x-x---x-x---x-x---x-x-----7----7----7------7------7777---7------7-------|
A|-x-x---x-x---x-x---x-x-----5----5----5------5------7777---7------5-------|
E|-x-x---x-x---x-x---x-x-----5----5----5------5------7777---7------5-------|

e|---------------------------------------------------9999---9------9-9-9---|
B|---------------------------------------------------9999---9------9-9-9---|
G|---------------------------7----7----7------7------9999---9------9-9-9---|
D|-x-x---x-x---x-x---x-x-----7----7----7------7------7777---7------7-7-9---|
A|-x-x---x-x---x-x---x-x-----5----5----5------5------7777---7------7-7-7---|
E|-x-x---x-x---x-x---x-x-----5----5----5------5------7777---7------7-7-7---|

e|-------------------------------------------------------------------------|
B|---------------------------------10---10---10---------10---10---10-------|
G|------11------------11--------------11---11---11---------11---11---11\---|
D|-9-------11---9-9-9----11---9--------------------------------------------|
A|-------------------------------------------------------------------------|
E|-------------------------------------------------------------------------|

-> CHORUS _________________________________________________________________

e|-------------------------------------------------------------------------|
B|-------------------------------------------------------------------------|
G|----------7--------------------------------------------------------------|
D|-7---7-7--7--7\---5---5-5---5-5/---9---9-9---9-9-99---9-9-99---9--9--9---|
A|-7---7-7--5--7\---5---5-5---5-5/---9---9-9---9-9-99---9-9-99---9--9--9---|
E|-5---5-5--5--5\---3---3-3---3-3/---7---7-7---7-7-77---7-7-77---7--7--7---|

e|-------------------------------------------------------------------------|
B|-------------------------------------------------------------------------|
G|----------7--------------------------------------------------------------|
D|-7---7-7--7--7\---5---5-5---5-5/---9---9-9---9-9-9----9-9-9----9-9-------|
A|-7---7-7--5--7\---5---5-5---5-5/---9---9-9---9-9-9----9-9-9----9-9-------|
E|-5---5-5--5--5\---3---3-3---3-3/---7---7-7---7-7-7----7-7-7----7-7-------|
[ Tab from: http://www.guitartabs.cc/tabs/r/red_hot_chili_peppers/fortune_faded_tab_ver_7.html ]
-> Verse 2 ________________________________________________________________

-> Intro __________________________________________________________________

e|-------------------------------------------------------9------9------9---|
B|---------------------------------10---10---10----------------------------|
G|------11------------11--------------11---11---11-------------------------|
D|-9-------11---9-9-9----11---9--------------------------------------------|
A|-------------------------------------------------------------------------|
E|-------------------------------------------------------------------------|

e|-------------------------------------------------------------------------|
B|------------------------------------10----------------10-----------------|
G|-----11-------------11-----------------------11------------------11\-----|
D|-9-------11---9-9-9----11---9--------------------------------------------|
A|-------------------------------------------------------------------------|
E|-------------------------------------------------------------------------|

-> 1st Time _______________________________________________________________

e|---------------------------------------------------9999---9--------------|
B|---------------------------------------------------9999---9--------------|
G|---------------------------7----7----7------7------9999---9------7-------|
D|-x-x---x-x---x-x---x-x-----7----7----7------7------7777---7------7-------|
A|-x-x---x-x---x-x---x-x-----5----5----5------5------7777---7------5-------|
E|-x-x---x-x---x-x---x-x-----5----5----5------5------7777---7------5-------|

e|---------------------------------------------------9999---9------9-9-9---|
B|---------------------------------------------------9999---9------9-9-9---|
G|---------------------------7----7----7------7------9999---9------9-9-9---|
D|-x-x---x-x---x-x---x-x-----7----7----7------7------7777---7------7-7-9---|
A|-x-x---x-x---x-x---x-x-----5----5----5------5------7777---7------7-7-7---|
E|-x-x---x-x---x-x---x-x-----5----5----5------5------7777---7------7-7-7---|

e|-------------------------------------------------------------------------|
B|---------------------------------10---10---10---------10---10---10-------|
G|------11------------11--------------11---11---11---------11---11---11\---|
D|-9-------11---9-9-9----11---9--------------------------------------------|
A|-------------------------------------------------------------------------|
E|-------------------------------------------------------------------------|

-> CHORUS _________________________________________________________________

e|-------------------------------------------------------------------------|
B|-------------------------------------------------------------------------|
G|----------7--------------------------------------------------------------|
D|-7---7-7--7--7\---5---5-5---5-5/---9---9-9---9-9-99---9-9-99---9--9--9---|
A|-7---7-7--5--7\---5---5-5---5-5/---9---9-9---9-9-99---9-9-99---9--9--9---|
E|-5---5-5--5--5\---3---3-3---3-3/---7---7-7---7-7-77---7-7-77---7--7--7---|

e|-------------------------------------------------------------------------|
B|-------------------------------------------------------------------------|
G|----------7--------------------------------------------------------------|
D|-7---7-7--7--7\---5---5-5---5-5/---9---9-9---9-9-9----9-9-9----9-9-------|
A|-7---7-7--5--7\---5---5-5---5-5/---9---9-9---9-9-9----9-9-9----9-9-------|
E|-5---5-5--5--5\---3---3-3---3-3/---7---7-7---7-7-7----7-7-7----7-7-------|


-> Bass Solo (No guitar) __________________________________________________

-> Bridge _________________________________________________________________


e|-------------------------------------------------------------------------|
B|-------------------------------------------------------------------------|
G|-------------------------------------------------------------------------|
D|-4444--------------------------------------------------------------------|
A|-4444--------------------------------------------------------------------|
E|-2222--------------------------------------------------------------------|

16 Times (like INTRO)

CHORUS

e|-------------------------------------------------------------------------|
B|-------------------------------------------------------------------------|
G|----------7--------------------------------------------------------------|
D|-7---7-7--7--7\---5---5-5---5-5/---9---9-9---9-9-99---9-9-99---9--9--9---|
A|-7---7-7--5--7\---5---5-5---5-5/---9---9-9---9-9-99---9-9-99---9--9--9---|
E|-5---5-5--5--5\---3---3-3---3-3/---7---7-7---7-7-77---7-7-77---7--7--7---|

e|-------------------------------------------------------------------------|
B|-------------------------------------------------------------------------|
G|----------7--------------------------------------------------------------|
D|-7---7-7--7--7\---5---5-5---5-5/---9---9-9---9-9-9----9-9-9----9-9-------|
A|-7---7-7--5--7\---5---5-5---5-5/---9---9-9---9-9-9----9-9-9----9-9-------|
E|-5---5-5--5--5\---3---3-3---3-3/---7---7-7---7-7-7----7-7-7----7-7-------|

e|-------------------------------------------------------------------------|
B|-------------------------------------------------------------------------|
G|----------7--------------------------------------------------------------|
D|-7---7-7--7--7\---5---5-5---5-5/---9---9-9---9-9-99---9-9-99---9--9--9---|
A|-7---7-7--5--7\---5---5-5---5-5/---9---9-9---9-9-99---9-9-99---9--9--9---|
E|-5---5-5--5--5\---3---3-3---3-3/---7---7-7---7-7-77---7-7-77---7--7--7---|

e|-------------------------------------------------------------------------|
B|-------------------------------------------------------------------------|
G|----------7--------------------------------------------------------------|
D|-7---7-7--7--7\---5---5-5---5-5/---9---9-9---9-9-9----9-9-9----9-9----9--|
A|-7---7-7--5--7\---5---5-5---5-5/---9---9-9---9-9-9----9-9-9----9-9----7--|
E|-5---5-5--5--5\---3---3-3---3-3/---7---7-7---7-7-7----7-7-7----7-7----7--|

____________________________________________________________________________
Comments