Red Hot Chili Peppers - Fortune Faded Chords & Tabs

 

Fortune Faded Chords & Tabs

Red Hot Chili Peppers Chords & Tabs

Version: 6 Type: Tab 0 ratings
1 star 2 stars 3 stars 4 stars 5 stars
comments

Fortune Faded Tab

#----------------------------------PLEASE NOTE--------------------------------#
#This file is the author's own work and represents their interpretation of the#
#song. You may only use this file for private study, scholarship, or research.#
#-----------------------------------------------------------------------------#
#-- File created with Instab - http://www.pconline.com/~smcarey/instab.html --#
#-----------------------------------------------------------------------------#

Author/Artist: Red Hot Chili Peppers
Title: Fortune Faded
Album: Greatest Hits
Transcribed by: israel  Ramirez
Email: rhcp_k@hotmail.com

------------------------------------------------------------------------------
------------------------------------------------------------------------------
------------------------------------------------------------------------------
-444444444--------------------------------------------------------------------
-444444444--------------------------------------------------------------------
-222222222--------------------------------------------------------------------
 no se cuantas veces se repite esto pero ese es el acorde.                    

------------------------------------------------------------------------------
--------------------------------------------14-14-14--------------------------
---11-----------11--------14-11-14-11-14-11-----------------------------------
-9----11-9-9-------11-9-------------------------------------------------------
------------------------------------------------------------------------------
------------------------------------------------------------------------------
                                                                              

------------------------------------------------------------------------------
------------------------------------------------------------------------------
---11-----------11---------14-11-14-11/---------------------------------------
-9----11-9-9-------11-9-------------------------------------------------------
------------------------------------------------------------------------------
------------------------------------------------------------------------------
                                                                              

------------------------------------------------------------------------------
------------------------------------------------------------------------------
------------------------------------------------------------------------------
-12x12x12---------7-7-7----------12x12x12---------7-7-7-----------------------
-12x12x12---------7-7-7----------12x12x12---------7-7-7-----------------------
-10x10x10---------5-5-5----------10x10x10---------5-5-5-----------------------
 En el segundo acorde john aveces le da un poco mas de rasgeos.               

------------------------------------------------------------------------------
------------------------------------------------------------------------------
--11---------11-------------14-11-14-11/--------------------------------------
-9---11-9-9-----11-9----------------------------------------------------------
------------------------------------------------------------------------------
------------------------------------------------------------------------------
                                                                              

------------------------------------------------------------------------------
------------------------------------------------------------------------------
------------------------------------------------------------------------------
-12x12x12---------7-7-7-----------12x12x12---------7-7-7----------------------
-12x12x12---------7-7-7-----------12x12x12---------7-7-7----------------------
-10x10x10---------5-5-5-----------10x10x10---------5-5-5----------------------
 En esta parte lo mismo que les dije antes de el segundo acorde.              

------------------------------------------------------------------------------
------------------------------------------------------------------------------
---11---------11-------------14-11-14-11-14-11--14-11-14-11-14-11-------------
-9----11-9-9-----11-9---------------------------------------------------------
------------------------------------------------------------------------------
------------------------------------------------------------------------------
                                                                              

------------------------------------------------------------------------------
------------------------------------------------------------------------------
------------------------------------------------------------------------------
-777777----12-12----55555555555555--999999999999999---------------------------
-777777----12-12----55555555555555--999999999999999---------------------------
-555555----10-10----33333333333333--777777777777777---------------------------
                                                                              

------------------------------------------------------------------------------
------------------------------------------------------------------------------
------------------------------------------------------------------------------
-777777----12-12----55555555555555--999999-9-9-9--9-9-9-----------------------
-777777----12-12----55555555555555--999999-9-9-9--9-9-9-----------------------
-555555----10-10----33333333333333--777777-7-7-7--7-7-7-----------------------
 No estoy seguro de los rasgeos pero es facil sacar el ritmo.                 
[ Tab from: http://www.guitartabs.cc/tabs/r/red_hot_chili_peppers/fortune_faded_tab_ver_6.html ]
------------------------------------------------------------------------------
-------------------------------------------14-14-14---------------------------
---11--------11----------14-11-14-11-14-11------------------------------------
-9----11-9-9----11-9----------------------------------------------------------
------------------------------------------------------------------------------
------------------------------------------------------------------------------
                                                                              

------------------------------------------------------------------------------
------------------------------------------------------------------------------
---11--------11-----------------14-11-14-11/----------------------------------
-9----11-9-9----11-9----------------------------------------------------------
------------------------------------------------------------------------------
------------------------------------------------------------------------------
                                                                              

------------------------------------------------------------------------------
------------------------------------------------------------------------------
------------------------------------------------------------------------------
-12x12x12----7-7-7--------------12x12x12---7-7-7------------------------------
-12x12x12----7-7-7--------------12x12x12---7-7-7------------------------------
-10x10x10----5-5-5--------------10x10x10---5-5-5------------------------------
                                                                              

------------------------------------------------------------------------------
------------------------------------------------------------------------------
---11--------11-----------14-11-14-11-14-11--14-11-14-11-14-11----------------
-9----11-9-9----11-9----------------------------------------------------------
------------------------------------------------------------------------------
------------------------------------------------------------------------------
                                                                              

------------------------------------------------------------------------------
------------------------------------------------------------------------------
------------------------------------------------------------------------------
-777777-----12-12-----55555555555-----9999999999------------------------------
-777777-----12-12-----55555555555-----9999999999------------------------------
-555555-----10-10-----33333333333-----7777777777------------------------------
                                                                              

------------------------------------------------------------------------------
------------------------------------------------------------------------------
------------------------------------------------------------------------------
-777777-----12-12-----5555555555-----999999---9-9-9---9-9-9-------------------
-777777-----12-12-----5555555555-----999999---9-9-9---9-9-9-------------------
-555555-----10-10-----3333333333-----777777---7-7-7---7-7-7-------------------
                                                                              

------------------------------------------------------------------------------
------------------------------------------------------------------------------
------------------------------------------------------------------------------
-4444444444-------------------------------------------------------------------
-4444444444-------------------------------------------------------------------
-2222222222-------------------------------------------------------------------
                                                                              

------------------------------------------------------------------------------
------------------------------------------------------------------------------
------------------------------------------------------------------------------
-777777---12-12-----5555555555---9999999999-----------------------------------
-777777---12-12-----5555555555---9999999999-----------------------------------
-555555---10-10-----3333333333---7777777777-----------------------------------
                                                                              

------------------------------------------------------------------------------
------------------------------------------------------------------------------
------------------------------------------------------------------------------
-777777--12-12-----5555555555----9999999999-----------------------------------
-777777--12-12-----5555555555----9999999999-----------------------------------
-555555--10-10-----3333333333----7777777777-----------------------------------
                                                                              

------------------------------------------------------------------------------
------------------------------------------------------------------------------
------------------------------------------------------------------------------
-777777--12-12-----5555555555----9999999999-----------------------------------
-777777--12-12-----5555555555----9999999999-----------------------------------
-555555--10-10-----3333333333----7777777777-----------------------------------
                                                                              

------------------------------------------------------------------------------
------------------------------------------------------------------------------
------------------------------------------------------------------------------
-777777--12-12-----5555555555-----999999-9-9-9--------------------------------
-777777--12-12-----5555555555-----999999-9-9-9--------------------------------
-555555--10-10-----3333333333-----777777-7-7-7--------------------------------
  Viva Mexico!!!!!!!!!!!!
Comments