Red Hot Chili Peppers - Fortune Faded Chords & Tabs

 

Fortune Faded Chords & Tabs

Red Hot Chili Peppers Chords & Tabs

Version: 3 Type: Tab 0 ratings
1 star 2 stars 3 stars 4 stars 5 stars
comments

Fortune Faded Tab

Song:   Fortune Faded
Artist: Red Hot Chili Peppers
Album:  Upcoming new album

Hi,
I've been searching a long time to find a tab from this song
but I couldn't find it so I decided to try it (FOR THE FIRST TIME) by myself..
So I hope you like it and if you don't...remember that I figured out this song from a
live version (Utrecht, Holland 23-8-2001). 
Feel free to contact me with corrections @ flea2oo1@hotmail.com

                         Intro
   e :---------------------------------------------------|
   B :--------9------------------------------------------|
   G :--------11-----------------------------------------|
   D :--*32x*-11-----------------------------------------|
   A :---------------------------------------------------|
   E :---------------------------------------------------|

                         Riff 1
  /e :--14-------14-------------------------9------------|
 / B :12---14-12----14-12--10-11-10-11-10----------------|
/  G :-----------------------------------11--------------|
   D :---------------------------------------------------|
   A :---------------------------------------------------|
   E :---------------------------------------------------|
1x
   e :--14-------14--------------------------------------|
   B :12---14-12----14-12--10~----10~--------------------|
   G :------------------------11~----11~-----------------|
\  D :---------------------------------------------------|
 \ A :---------------------------------------------------|
  \E :---------------------------------------------------|


                         Verse
                V  ^  V   V  ^  V
  /e :---------------------------------------------------|
 / B :-----------12-12-12--12-12-12----------------------|
   G :11-11-11~--14-14-14--14-14-14----------------------|
2x D :12-12-12~--14-14-14--14-14-14----------------------|
 \ A :12-12-12~------------------------------------------|
  \E :---------------------------------------------------|


                          Riff 2   
  /e :--14-------14-------------------------9~-----------|
 / B :12---14-12----14-12--10-11-10-11-10----------------|
/  G :-----------------------------------11--------------|
   D :---------------------------------------------------|
   A :---------------------------------------------------|
   E :---------------------------------------------------|
1x
   e :--14-------14---------------9~---------------------|
   B :12---14-12----14-12--10~---------------------------|
   G :------------------------11~------------------------|
\  D :---------------------------------------------------|
 \ A :---------------------------------------------------|
  \E :---------------------------------------------------|


                           Chorus
  /e :---------------------------|------------------------|
 / B :------12-12-12-7-7-7-------|-------12-12-7-7--------|
   G :11-11-14-14-14-9-9-9-9-9-9-|-11-11-14-14-9-9-9-9----|
2x D :12-12-14-14-14-9-9-9-9-9-9-|-12-12-14-14-9-9-9-9----|
 \ A :12-12----------------7-7-7-|-12-12-----------7-7----|
  \E :---------------------------|------------------------|

[ Tab from: http://www.guitartabs.cc/tabs/r/red_hot_chili_peppers/fortune_faded_tab_ver_3.html ]
                         Riff 1
  /e :--14-------14-------------------------9------------|
 / B :12---14-12----14-12--10-11-10-11-10----------------|
/  G :-----------------------------------11--------------|
   D :---------------------------------------------------|
   A :---------------------------------------------------|
   E :---------------------------------------------------|
1x
   e :--14-------14--------------------------------------|
   B :12---14-12----14-12--10~----10~--------------------|
   G :------------------------11~----11~-----------------|
\  D :---------------------------------------------------|
 \ A :---------------------------------------------------|
  \E :---------------------------------------------------|


                         Verse
                V  ^  V   V  ^  V
  /e :---------------------------------------------------|
 / B :-----------12-12-12--12-12-12----------------------|
   G :11-11-11~--14-14-14--14-14-14----------------------|
2x D :12-12-12~--14-14-14--14-14-14----------------------|
 \ A :12-12-12~------------------------------------------|
  \E :---------------------------------------------------|


                          Riff 2   
  /e :--14-------14-------------------------9~-----------|
 / B :12---14-12----14-12--10-11-10-11-10----------------|
/  G :-----------------------------------11--------------|
   D :---------------------------------------------------|
   A :---------------------------------------------------|
   E :---------------------------------------------------|
1x
   e :--14-------14---------------9~---------------------|
   B :12---14-12----14-12--10~---------------------------|
   G :------------------------11~------------------------|
\  D :---------------------------------------------------|
 \ A :---------------------------------------------------|
  \E :---------------------------------------------------|


                           Chorus
  /e :---------------------------|------------------------|
 / B :------12-12-12-7-7-7-------|-------12-12-7-7--------|
   G :11-11-14-14-14-9-9-9-9-9-9-|-11-11-14-14-9-9-9-9----|
2x D :12-12-14-14-14-9-9-9-9-9-9-|-12-12-14-14-9-9-9-9----|
 \ A :12-12----------------7-7-7-|-12-12-----------7-7----|
  \E :---------------------------|------------------------|
   
   BASS SOLO, after a while Guitar comes in with something like this:

   e :---------------------------------------------------|
   B :--------9------------------------------------------|
   G :--------11-----------------------------------------|
   D :--*32x*-11-----------------------------------------|
   A :---------------------------------------------------|
   E :---------------------------------------------------|


                           Chorus
  /e :---------------------------|------------------------|
 / B :------12-12-12-7-7-7-------|-------12-12-7-7--------|

   G :11-11-14-14-14-9-9-9-9-9-9-|-11-11-14-14-9-9-9-9----|
3x D :12-12-14-14-14-9-9-9-9-9-9-|-12-12-14-14-9-9-9-9----|
 \ A :12-12----------------7-7-7-|-12-12-----------7-7----|
  \E :---------------------------|------------------------|

                           Ending
  /e :---------------------------|------------------------|
 / B :------12-12-12-7-7-7-------|-------12-12------------|
   G :11-11-14-14-14-9-9-9-9-9-9-|-11-11-14-14------------|
1x D :12-12-14-14-14-9-9-9-9-9-9-|-12-12-14-14------------|
 \ A :12-12----------------7-7-7-|-12-12------------------|
  \E :---------------------------|------------------------|


And that's all, the timing is probably not right but I think You'll
be able to figure that out yourself when you play along with the song.

Grtz,

Matthijs 
Comments