Red Hot Chili Peppers - Fortune Faded Chords & Tabs

 

Fortune Faded Chords & Tabs

Red Hot Chili Peppers Chords & Tabs

Version: 2 Type: Tab 4 ratings
1 star 2 stars 3 stars 4 stars 5 stars
comments

Fortune Faded Tab

   
Author/Artist: Red Hot Chili Peppers
Title: Fortune Faded
Album: Greatest Hits
Transcribed by: Greenie 12
Email: onkel44@hotmail.com


http://www.geocities.com/onkel442003/index.html



Intro:

     F#                                  
e-|-----------------------------------|-----------------------------------|-
B-|--2-2-2-2-2-2-2-2-2-2-2-2-2-2-2-2--|--2-2-2-2-2-2-2-2-2-2-2-2-2-2-2-2--|-
G-|--3-3-3-3-3-3-3-3-3-3-3-3-3-3-3-3--|--3-3-3-3-3-3-3-3-3-3-3-3-3-3-3-3--|-
D-|--4-4-4-4-4-4-4-4-4-4-4-4-4-4-4-4--|--4-4-4-4-4-4-4-4-4-4-4-4-4-4-4-4--|-
A-|--4-4-4-4-4-4-4-4-4-4-4-4-4-4-4-4--|--4-4-4-4-4-4-4-4-4-4-4-4-4-4-4-4--|-
E-|--2-2-2-2-2-2-2-2-2-2-2-2-2-2-2-2--|--2-2-2-2-2-2-2-2-2-2-2-2-2-2-2-2--|-

     
e-|-----------------------------------|-----------------------------------|-
B-|--2-2-2-2-2-2-2-2-2-2-2-2-2-2-2-2--|--2-2-2-2-2-2-2-2-2-2-2-2-2-2-2-2--|-
G-|--3-3-3-3-3-3-3-3-3-3-3-3-3-3-3-3--|--3-3-3-3-3-3-3-3-3-3-3-3-3-3-3-3--|-
D-|--4-4-4-4-4-4-4-4-4-4-4-4-4-4-4-4--|--4-4-4-4-4-4-4-4-4-4-4-4-4-4-4-4--|-
A-|--4-4-4-4-4-4-4-4-4-4-4-4-4-4-4-4--|--4-4-4-4-4-4-4-4-4-4-4-4-4-4-4-4--|-
E-|--2-2-2-2-2-2-2-2-2-2-2-2-2-2-2-2--|--2-2-2-2-2-2-2-2-2-2-2-2-2-2-2-2--|-



Fig. 1   


     Bm    w/Variations
e-|------------------------|------------------------|-
B-|------------------------|------------------------|-
G-|---------11-------------|-------11---------------|-
D-|--9------------11----9--|--9--------11----9------|-
A-|------------------------|------------------------|-
E-|------------------------|------------------------|-
     

e-|-----------------------------|--9------9------9------|-
B-|--10-----10----10------------|-----------------------|-
G-|------11----11-----11--------|-----------------------|-
D-|-----------------------------|-----------------------|-
A-|-----------------------------|-----------------------|-
E-|-----------------------------|-----------------------|-


e-|------------------------|------------------------|-
B-|------------------------|------------------------|-
G-|---------11-------------|-------11---------------|-
D-|--9------------11----9--|--9--------11----9------|-
A-|------------------------|------------------------|-
E-|------------------------|------------------------|-


e-|----------------------|---------------------------|-
B-|--10------------------|--10-----------------------|-
G-|----------11----------|----------11--------(11)\--|-
D-|----------------------|---------------------------|-
A-|----------------------|---------------------------|-
E-|----------------------|---------------------------|-



Fig. 2


     Bm                             Bm
e-|------------------------------|-------------------------------|-
B-|------------------------------|-------------------------------|-
G-|------------(Rest)------------|-------------(Rest)------------|-
D-|------------------------------|-------------------------------|-
A-|------------------------------|-------------------------------|-
E-|------------------------------|-------------------------------|-

[ Tab from: http://www.guitartabs.cc/tabs/r/red_hot_chili_peppers/fortune_faded_tab_ver_2.html ]
     D                       A 
e-|-----------------------|---9--9--9--9-----9--9--9--9-----9\----|-
B-|--7--x-7--x-7----------|--10-10-10-10----10-10-10-10----10\----|-
G-|--7--x-7--x-7----------|---9--9--9--9-----9--9--9--9-----9\----|-
D-|--7--x-7--x-7----------|---------------------------------------|-
A-|--5----5----5----------|---------------------------------------|-
E-|-----------------------|---------------------------------------|-


     Bm                             Bm 
e-|------------------------------|-------------------------------|-
B-|------------------------------|-------------------------------|-
G-|------------(Rest)------------|-------------(Rest)------------|-
D-|------------------------------|-------------------------------|-
A-|------------------------------|-------------------------------|-
E-|------------------------------|-------------------------------|-


     D                       A
e-|-----------------------|---9--9--9--9-----9--9--9--9--9--9--9--9--9--9--|-
B-|--7--x-7--x-7----------|--10-10-10-10----10-10-10-10-10-10-10-10-10-10--|-
G-|--7--x-7--x-7----------|---9--9--9--9-----9--9--9--9--9--9--9--9--9--9--|-
D-|--7--x-7--x-7----------|------------------------------------------------|-
A-|--5----5----5----------|------------------------------------------------|-
E-|-----------------------|------------------------------------------------|-



Fig. 3


     A                D             G
e-|--5--5-5-5--5-5---------------|--3--3-3-3--3-3--3--3--3-3-3-3--|-
B-|--5--5-5-5--5-5--x-7--7--x-x--|--3--3-3-3--3-3--3--3--3-3-3-3--|-
G-|--6--6-6-6--6-6--x-7--7--x-x--|--4--4-4-4--4-4--4--4--4-4-4-4--|-
D-|--7--7-7-7--7-7--x-7--7--x-x--|--5--5-5-5--5-5--5--5--5-5-5-5--|-
A-|--x--x-x-x--x-x----5--5-------|--x--x-x-x--x-x--x--x--x-x-x-x--|-
E-|--5--5-5-5--5-5---------------|--3--3-3-3--3-3--3--3--3-3-3-3--|-

     
     Bm                   
e-|--7--7-7-7--7-7--7-7--7--7-7--|------7--7--7-7------7--7-----|-
B-|--7--7-7-7--7-7--7-7--7--7-7--|---x-10--7--7-7---x-10--7-----|-
G-|--7--7-7-7--7-7--7-7--7--7-7--|---x--7--7--7-7---x--7--7-----|-
D-|--9--9-9-9--9-9--9-9--9--9-9--|---x--9--9--9-9---x--9--9-----|-
A-|--x--x-x-x--x-x--x-x--x--x-x--|------------------------------|-
E-|--7--7-7-7--7-7--7-7--7--7-7--|------------------------------|-


     A                D             G
e-|--5--5-5-5--5-5---------------|--3--3-3-3--3-3--3--3--3-3-3-3--|-
B-|--5--5-5-5--5-5--x-7--7--x-x--|--3--3-3-3--3-3--3--3--3-3-3-3--|-
G-|--6--6-6-6--6-6--x-7--7--x-x--|--4--4-4-4--4-4--4--4--4-4-4-4--|-
D-|--7--7-7-7--7-7--x-7--7--x-x--|--5--5-5-5--5-5--5--5--5-5-5-5--|-
A-|--x--x-x-x--x-x----5--5-------|--x--x-x-x--x-x--x--x--x-x-x-x--|-
E-|--5--5-5-5--5-5---------------|--3--3-3-3--3-3--3--3--3-3-3-3--|-


     Bm
e-|--7----7------7--7--7--|----7--7--7--------------|-
B-|--7----7------7--7--7--|----7--7--7--------------|-
G-|--7----7------7--7--7--|----7--7--7--------------|-
D-|--9----9------9--9--9--|----9--9--9--------------|-
A-|-----------------------|-------------------------|-
E-|-----------------------|-------------------------|-




Comments