Red Hot Chili Peppers - Fortune Faded Chords & Tabs

 

Fortune Faded Chords & Tabs

Red Hot Chili Peppers Chords & Tabs

Version: 3 Type: Bass Tab 0 ratings
1 star 2 stars 3 stars 4 stars 5 stars
comments

Fortune Faded Bass Tab

   
		Red Hot Chili Peppers- Fortune Faded                        

Tabbed By :Big Dave 

Tuning:EADG

Intro and before the last chorus
G|-------------------------------------------------------|
D|-------------------------------------------------------|
A|---------------------------------------------5-5-5-5---|
E|-2-2-2-2--2-2-2-2--2-2-2-2--2-2-2-2--5-5-5-5-----------|
[ Tab from: http://www.guitartabs.cc/tabs/r/red_hot_chili_peppers/fortune_faded_btab_ver_3.html ]
Verse/Bass solo
G|--------------------------------------|
D|--------------------------------------|
A|--------------------------------------|
E|-2-2--2-2--2-2--2-2--5-5-5---0-0-0-0--|

Chorus
G|-------------------------------------------------|
D|-------------------------------------------------|
A|-------------------------------------------------|
E|-2-2-2-2-2-2-2-2-5-5-5-5-5-5-5-5-2-2-2-2-0-0-0-0-|
Comments