Red Hot Chili Peppers - Fire Chords & Tabs

 

Fire Chords & Tabs

Red Hot Chili Peppers Chords & Tabs

Version: 4 Type: Tab 0 ratings
1 star 2 stars 3 stars 4 stars 5 stars
comments

Fire Tab

   
Band: Red Hot Chili Peppers
Song: Fire
Album: Mothers milk/What hits!?
Tuning: standard

Tabbed by Knut Zetterstrøm

Intro:
e|----------------------------------|
B|----------------------------------|
G|----------------------------------|
D|-6-5\--3h5---------6-5\--3h5------|
A|-----------5-5---------------5-5--|
E|----------------------------------|

Verse:
e|-------------------------------------|
B|-------------------------------------|
G|-------------------------------------|
D|--------------PLAY THIS 6 TIMES------|
A|---3--5-5----------------------------|
E|-5-----------------------------------|

Chours:
e|------------------------------------------------------|
B|------------------------------------------------------|
G|-7-7-7--5-5-5-----------------------------------------|
D|-7-7-7--5-5-5--x-x--x-x--x-x-x----PLAY THIS 4 TIMES---|
A|-5-5-5--3-3-3--2-2--3-3--4-4-4------------------------|
E|------------------------------------------------------|
[ Tab from: http://www.guitartabs.cc/tabs/r/red_hot_chili_peppers/fire_tab_ver_4.html ]
Bridge (before solo)
e|---------------------|
B|---------------------|
G|-7----5---------5----|
D|-7----5----5----5----|
A|-5----3----5----3----|
E|-----------7---------|

Solo:
e|-12-12-12p10-------12-12-12p10--14v--12-12-12p10------12-12-12p10-------|
B|--------------12v--------------------------------12v--------------12----|
G|--------------------------------------------------------------------14v-|
D|------------------------------------------------------------------------|
A|------------------------------------------------------------------------|
E|------------------------------------------------------------------------|

On the outro, just play you own ting and improvide a little=) Let the final notes be the same as the intro
A great song (original by J. Hendrix) witch really rocks, specially live!!
Have fun playing it!

Song order:
-Intro
-Verse
-Chours
-Verse
-Chours
-Bridge
-Solo
-Intro
-Verse
-Chours

Signs:
/ = slide up
\ = slide down
v = vibrate
b = bend
p = pull off

Red Hot Chili Peppers rocks!
Have a nice day!
Comments