Red Hot Chili Peppers - Fire Chords & Tabs

 

Fire Chords & Tabs

Red Hot Chili Peppers Chords & Tabs

Version: 2 Type: Tab 0 ratings
1 star 2 stars 3 stars 4 stars 5 stars
comments

Fire Tab

   
Artist: Red Hot Chili Peppers 
Song: Fire
Tabbed by Austin Hern  metallicadude@hotmail.com

Intro
 2 times 
E-------------------------------
B-------------------------------
G-----8----7------5-sl.7--------
D-----6----5------3-sl.5-77-----
A------------------------55-----
E-------------------------------
           sl.= slide
 Verse
6 times
E--------------------------
B--------------------------
G--------------------------
D--2---5 sl.7-7------------
A--0---3 sl.5-5------------
E--------------------------

Chorus
[ Tab from: http://www.guitartabs.cc/tabs/r/red_hot_chili_peppers/fire_tab_ver_2.html ]
4 times
E-----------------------------
B-----------------------------
G-----------------------------
D--77-7-----------44-55-66----
A--55-5--66-7---7-22-33-44----
E--------44-5---5-------------

Interlude before solo ( move over rover....)

E---------------------------
B---------------------------
G---------------------------
D--7~---5~-------5~---------
A--5~---3~--7~---3~---------
E-----------5~--------------

Solo

E-----------------------------------
B---17b-15b-------17b-15b-15b-------
G----------16b----------------------
D-----------------------------------
A-----------------------------------
E-----------------------------------

E----------------------------------
B---17b-15b-------17b-15b----------
G-----------16b-----------12b------
D----------------------------------
A----------------------------------
E----------------------------------
             b= bend
Comments