Red Hot Chili Peppers - Fire Chords & Tabs

 

Fire Chords & Tabs

Red Hot Chili Peppers Chords & Tabs

Version: 1 Type: Bass Tab 0 ratings
1 star 2 stars 3 stars 4 stars 5 stars
comments

Fire Bass Tab

 Artist: Red Hot Chili Peppers
 Song: "Fire"
 Tabbed by: Julián O. Barrera
 Comments or RHCP stuff? Kuckimonster2@aol.com

  Intro:   
 G ---------------|
 D -6-5---3-5-----|
 A -----------5-5-|
 E ---------------|

  Verse:
 G ----------|
 D ----------|
 A --0-3-5-5-|
 E ----------|

  Chorus:    (4x)             Live Version:
 G ---------------------|----------------------|
 D ---------------------|----------------------|
 A -5-5--------22-33-44-|-5555--------22-33-44-|
 E -----2345-5----------|------234555----------|

  Bridge:           (4x)
 G ---------------|------|----------------------|
 D ---------------|---5-7|----------------------|
 A --5------3-----|00----|-3-3-3-3/15-15-15-15\-|
 E ---------------|------|----------------------|
[ Tab from: http://www.guitartabs.cc/tabs/r/red_hot_chili_peppers/fire_btab.html ]
  Solo #1:   (3x)         (1x)     
 G ---------------------|-----------------|
 D ---------------------|-----------------|
 A -7-7--------44-55-66-|-7-7--------44-5-|
 E -----4567-7----------|-----4567-7------|

  Solo #2:
 G ------------------------------------------------------------------------------------|
 D ------------------------------------------------------------------------------------|
 A -7-7--------44-55-66--7-7--------44-55-66--5-5--------22-33-44--5-5--------22-33-44-|
 E -----4567-7---------------4567-7---------------2345-5---------------2345-5----------|
                                               This section is slapped live(2x)
 G -------------------------------------------|--------------------------------|
 D -------------------------------------------|--------------------------------|
 A -7-7--------44-55-66--7-7--------44-55-6-x-|-5-5-5-5-5-5-5-5-3-3-3-3-3-3-3-3|
 E -----4567-7---------------4567-7-----------|--------------------------------|

Comments