Red Hot Chili Peppers - Falling Into Grace Chords & Tabs

 

Falling Into Grace Chords & Tabs

Red Hot Chili Peppers Chords & Tabs

Version: 2 Type: Bass Tab 0 ratings
1 star 2 stars 3 stars 4 stars 5 stars
comments

Falling Into Grace Bass Tab

Falling into Grace by Red Hot Chili Peppers
Bass Part by Michael Balzary (Flea)
Tabbed by Dan Bogosian (UtBDan)
Visit UtBDan's band at:
http://www.geocities.com/underthbed/


MAIN RIFF
G --------------------------|
D --------------------------|
A -------------0--3-2-------|
E -0h2-0h2-0h3----------0-0-|

G ---------------|
D ---------------|
A ----------2-3--|
E -0h2-0h5-------|

G --------------------------|
D --------------------------|
A -------------0--3-2-------|
E -0h2-0h2-0h3----------0-0-|

G ---------------|
D ---------------|
A ----------2----|
E -0h2-0h5----0--|

He slides after the 2nd bar in that in the first verse, and at the start of the 2nd 
chorus he plays the octave of the C.

CHORUS
G ---------------------------|
D ---------------------------|
A -3------2------------------|
E ---------------0------0-0--|
[ Tab from: http://www.guitartabs.cc/tabs/r/red_hot_chili_peppers/falling_into_grace_btab_ver_2.html ]
G ---------------------------|
D ---------------------------|
A -3------2------------------|
E ---------------0------0-0--|

G ---------------------------|
D ---------------------------|
A -3------2------------------|
E ---------------0------0-0--|

G -------------------------------|
D -------------------------------|
A -3------2-------------5--4--3--|
E ---------------0---------------|

BRIDGE
G ---------------------------------|
D ---------5------------7--7-5-----|
A ------5------------7---------6-5-|
E -3----------5-5------------------|

G ---------------------------------|
D ---------5---------7h9-7h9-------|
A ------5--------------------8-7-5-|
E -3-----------3-5-----------------|

G ---------------------------------|
D ---------5------------7--7h9-----|
A ------5------------7---------8-7-|
E -3----------5-5------------------|

G --------------|
D ---------5----|
A ------5-------|
E -3------------|

G ---------------|
D ---------------|
A ----5---4---3--|
E -3-------------|
Comments