Red Hot Chili Peppers - Emit Remmus Chords & Tabs

 

Emit Remmus Chords & Tabs

Red Hot Chili Peppers Chords & Tabs

Version: 3 Type: Tab 0 ratings
1 star 2 stars 3 stars 4 stars 5 stars
comments

Emit Remmus Tab

W/distortion.

Riff 1 (allow as much feedback as possible, and bend with whammy bar)
e-----------------------|-----------------------|
b--11~~~~~~~~~~~~~~~~~~-|-9~~~~~~~~~~~~~~~~~~~~-|
g-----------------------|-----------------------|
d-----------------------|-----------------------|
a-----------------------|-----------------------|
e-----------------------|-----------------------|

Riff 2
e------------------------------------------------------------|
b------------------------------------------------------13\\--|
g--8--10-10-10--13-13------------8--10-10-10--13--13---13\\--|
d--8--10-10-10-/13-13--x-x--x-x--8--10-10-10-/13--13---13\\--|
a--6--8--8--8--/11-11--x-x--x-x--6--8--8--8--/11--11---------|
e------------------------------------------------------------|

e---------------------------------------------------------------------------|
b------------------------------------------------------13-13-13-13-13-13-13-|
g--8--10-10-10--13-13------------8--10-10-10--13--13---13-13-13-13-13-13-13-|
d--8--10-10-10-/13-13--x-x--x-x--8--10-10-10-/13--13---13-13-13-13-13-13-13-|
a--6--8--8--8--/11-11--x-x--x-x--6--8--8--8--/11--11------------------------|
e---------------------------------------------------------------------------|
[ Tab from: http://www.guitartabs.cc/tabs/r/red_hot_chili_peppers/emit_remmus_tab_ver_3.html ]
Riff 1 (with variations)
e-------------10--------|-----------------------|
b--11~~~~~~~~----11~~~~-|-9~~~~~~~~~~~~~~~~~~~~-|
g-----------------------|-----------------------|
d-----------------------|-----------------------|
a-----------------------|-----------------------|
e-----------------------|-----------------------|

Riff 3
e-------------------------------------------------------------------|
b-------------------------------------------------------------------|
g-------------------------------------------------------------------|
d--1--1--1--1-1------------------------------------3-3-3--3--3-3----|
a--3--3--3--3-3-0--3--3--3--3-3-0--5--5--5--5-5-0--3-3-3--3--3-3-0--|
e--3--3--3--3-3-0--4--4--4--4-4-0--6--6--6--6-6-0--1-1-1--1--1-1-0--|

e--------------------------------------------------------------------------|
b-------------------------------------------------13-13-13-13-13-13-13-13--|
g-------------------------------------------------13-13-13-13-13-13-13-13--|
d--1--1--1--1-1-----------------------------------13-13-13-13-13-13-13-13--|
a--3--3--3--3-3-0--3--3--3--3-3-0--5--5--5--5-5-0--------------------------|
e--3--3--3--3-3-0--4--4--4--4-4-0--6--6--6--6-6-0--------------------------|

solo riff- use same notes as riff 1, but just fuck around with feedback
and whammy bends.
Comments