Red Hot Chili Peppers - Easily Chords & Tabs

 

Easily Chords & Tabs

Red Hot Chili Peppers Chords & Tabs

Version: 2 Type: Tab 0 ratings
1 star 2 stars 3 stars 4 stars 5 stars
comments

Easily Tab

   
Song: Easily
Artist: Red Hot Chili Peppers
tab by Nano
e-mail: mariachi_boo@yahoo.com.ar

Intro: [Am Dm F Am]

Am  Dm  F                   Am
Easily    let's get carried away
Am  Dm  F                   Am
Easily   let's get married today
Am                  Dm 
Shao Lin shouted a rose 
From his throat
F                Am
  Everything must go
A lickin' stick is thicker
           Dm 
When you break it to show 
F                 Am
  Everything must go 

     C                       G            C
The story of a woman on the morning of a war
                               G 
Remind me if you will exactly what we're
          C
fighting for 

Am                  G                Am
Calling calling for something in the air
                   G                Am
Calling calling I know you must be there

Easily let's get caught in a wave 
Easily we won't get caught in a cage 
Shao Lin shakin' for the sake 
Of his soul - Everything must go 
Lookin' mighty tired of 
All the things that you own 
Everything must go 

I can't tell you who to idolize 
You think it's almost over 
But it's only on the rise 
Calling calling 
For something in the air 
Calling calling I know you must be there 

The story of a woman on the morning of a war 
Remind me if you will exactly what we're
fighting for 


Throw me to the wolves because 
Because there's order in the pack 
Throw me to the sky 
Because I know I'm coming back 

Solo

Shao Lin shakin' for the sake 
Of his soul - Everything must go 
Lookin' mighty tired of 
All the things that you own 
Everything must go 

The story of a woman on the morning of a war 
Remind me if you will exactly what we're
fighting for 

Calling calling for something in the air 
Calling calling I know you must be there 

I don't want to be your little research monkey
boy 
The creature that I am is only going to destroy 

Throw me to the wolves 
Because there's order in the pack 
Throw me to the sky 
Because I know I'm coming back

Outro




Solo:

e:--12-10-12-12/15--12-10-|--8-10/(12)\10--8-|--8-7-8--8/10\8--7--8--8/12--7-8--|
B:------------------------|------------------|----------------------------------|
G:------------------------|------------------|----------------------------------|
D:------------------------|------------------|----------------------------------|
A:------------------------|------------------|----------------------------------|
E:------------------------|------------------|----------------------------------|


Outro:
[ Tab from: http://www.guitartabs.cc/tabs/r/red_hot_chili_peppers/easily_tab_ver_2.html ]
e:--15~--13-12-13-12---------12------|--15~--13-12-13-12---------12------|
B:-------------------13-12------13---|--------------------13-12------13--|
G:-----------------------------------|-----------------------------------|
D:-----------------------------------|-----------------------------------|
A:-----------------------------------|-----------------------------------|
E:-----------------------------------|-----------------------------------|

e:--17~--15-12-15-12------15--12-----|--17~--15-12-15-12------15--12-----|
B:--------------------15-------------|--------------------15-------------|
G:-----------------------------------|-----------------------------------|
D:-----------------------------------|-----------------------------------|
A:-----------------------------------|-----------------------------------|
E:-----------------------------------|-----------------------------------|

e:--15~--13-12-13-12---------12------|--15~--13-12-13-12---------12------|
B:-------------------13-12------13---|--------------------13-12------13--|
G:-----------------------------------|-----------------------------------|
D:-----------------------------------|-----------------------------------|
A:-----------------------------------|-----------------------------------|
E:-----------------------------------|-----------------------------------|

e:--17~--15-12-15-12------12-15--12--|--17~--15-12-15-12-----12-15--12---|
B:--------------------15-------------|--------------------15-------------|
G:-----------------------------------|-----------------------------------|
D:-----------------------------------|-----------------------------------|
A:-----------------------------------|-----------------------------------|
E:-----------------------------------|-----------------------------------|

e:--15~--13-12-13-12---------12------|--15~--13-12-13-12---------12------|
B:-------------------13-12------13---|--------------------13-12------13--|
G:-----------------------------------|-----------------------------------|
D:-----------------------------------|-----------------------------------|
A:-----------------------------------|-----------------------------------|
E:-----------------------------------|-----------------------------------|

e:--17~--15-12-15-12------15--12-----|--17~--15-12-15-12------15--12---------|
B:--------------------15-------------|--------------------15----------15--13-|
G:-----------------------------------|---------------------------------------|
D:-----------------------------------|---------------------------------------|
A:-----------------------------------|---------------------------------------|
E:-----------------------------------|---------------------------------------|

Chords:

    EADGBe
Am: x02210
Dm: xx0231
F:  133211
C:  x32010
G:  320022

N    N    AA    N    N    OO
NN   N   A  A   NN   N   O  O
N N  N  A    A  N N  N  O    O
N  N N  AAAAAA  N  N N  O    O
N   NN  A    A  N   NN  O    O
N    N  A    A  N    N   O  O
N    N  A    A  N    N    OO
Comments