Red Hot Chili Peppers - Easily Chords & Tabs

 

Easily Chords & Tabs

Red Hot Chili Peppers Chords & Tabs

Version: 1 Type: Tab 1 rating
1 star 2 stars 3 stars 4 stars 5 stars
comments

Easily Tab

Red Hot Chili Peppers
Easily

Tabbed by Andres (www.geocities.com/clubtabz)

Hi!
Cool song!


Intro
E------------------------------------------------------------------------------
B--------------------------------------------1--1-1-1--1-----------------------
G--2--2-2-2--2-2^-0---2--2-2-2-2--2p0--0-0---2--2-2-2--2--0-0--2--2--2-2-2-----
D--2--2-2-2--2--------0--0-0-0-0-------0-0---3--3-3-3--3--0-0--2--2--2-2-2-----
A--0--0-0-0--0-------------------------------------------------0--0--0-0-0-----
E------------------------------------------------------------------------------


Chords

("Easily let's get carried away...")
E-----------------------------------
B--------3-----1--0-----------------
G--2-----2-----2--0-----------------
D--2-----0-----3--0-----------------
A--0--------------------------------
E-----------------------------------

("The story of a woman...")
E-----------------------------------------------------------
B--5--5-5-5---3-3-3---1-1-1-----5--5-5-5---3-3-3---1-1-1----
G--5--5-5-5---4-4-4---2-2-2-----5--5-5-5---4-4-4---2-2-2----
D--5--5-5-5---5-5-5---3-3-3-----5--5-5-5---5-5-5---3-3-3----
A-----------------------------------------------------------
E-----------------------------------------------------------

("Calling calling for something in the air...")
E-----------------------------------------------------------
B--1--1-1-1---3-3-3---1-1-1-----1--1-1-1---3-3-3---1-1-1----
G--2--2-2-2---4-4-4---2-2-2-----2--2-2-2---4-4-4---2-2-2----
D--2--2-2-2---5-5-5---3-3-3-----2--2-2-2---5-5-5---3-3-3----
A-----------------------------------------------------------
E-----------------------------------------------------------


Solo 1
E--------------------------------------------------
B--17---15--17b20r17--15----13---15-12b13----------
G--------------------------------------------------
D--------------------------------------------------
A--------------------------------------------------
E--------------------------------------------------

E--------------------------------------------------
B--13---12-13b15r13----15b17---17r15---12-12b13----
G--------------------------------------------------
D--------------------------------------------------
A--------------------------------------------------
E--------------------------------------------------


Solo 2 (Final)

Guitar 1 (repeat as many times as necessary) (2:58)
E--15---13-12-13-12-----------12--------15---13-12-13-12-----------12--------
B---------------------13--12------13-----------------------13--12------13----
G----------------------------------------------------------------------------
D----------------------------------------------------------------------------
A----------------------------------------------------------------------------
E----------------------------------------------------------------------------

E--17---15-12-15--12-----15--12----17---15-12-15--12-----15--12--------------
B---------------------15------------------------------15---------------------
G----------------------------------------------------------------------------
D----------------------------------------------------------------------------
A----------------------------------------------------------------------------
E----------------------------------------------------------------------------

[ Tab from: http://www.guitartabs.cc/tabs/r/red_hot_chili_peppers/easily_tab.html ]
Guitar 2 (3:06)
E----------------------------------------------------15-12-------
B-----------------------------13--15b17r15--13-------------------
G--------------------9/14----------------------------------------
D--5/7-----------------------------------------------------------
A----------------------------------------------------------------
E----------------------------------------------------------------

E----------------------------------------------------------------
B--15b17--17r15--13-12-13----------------------------------------
G-----------------------------\9-----7/9--12-9-12-9---9b10-------
D----------------------------------------------------------10----
A----------------------------------------------------------------
E----------------------------------------------------------------

E----------------------------------------------------------------
B----------------------------------------------------------------
G------------------12p9------------------------------------------
D--12b14r12--10-------------5b7r5b7------------------------------
A----------------------------------------------------------------
E----------------------------------------------------------------


Guitar 3 (3:09)
E-------------------------------------------------------------
B-------------------------------------------------------------
G--12p9-9---7h9-9b12r9--9------7---\5-5----7b9-----4--5--5----
D-------------------------------------------------------------
A-------------------------------------------------------------
E-------------------------------------------------------------

E-------------------------------------------------------------
B--10b12r10---------------------------------------------------
G------------12-9---12p9------7h9---------------9-------------
D-----------------------------------10--10--10-----10---------
A-------------------------------------------------------------
E-------------------------------------------------------------

E-------------------------------------------------------------
B-------------------------------------------------------------
G-------------------------------------------------------------
D--5-----3------\--2--------5--3--2---------------------------
A------------------------------------3------------------------
E-----------------------------------------3/5----5/8----------


Guitar 4 (3:13)
E---------------------------------------15-15-12-15--12-----------
B--10b13r10----15b17r15--13--12-13--------------------------------
G-----------------------------------------------------------------
D-----------------------------------------------------------------
A-----------------------------------------------------------------
E-----------------------------------------------------------------

E--20--20--20--20--20-----20--20--19--17----19--17--15--17--12----
B-----------------------------------------------------------------
G-----------------------------------------------------------------
D-----------------------------------------------------------------
A-----------------------------------------------------------------
E-----------------------------------------------------------------

E--15--12h15-15b17------------15----------------------------------
B-------------------------15------13-----13-----------------------
G-----------------------------------------------------------------
D-----------------------------------------------------------------
A-----------------------------------------------------------------
E-----------------------------------------------------------------


Hope you enjoy it!
Mail me to la_laker83@hotmail.com
Comments