Red Hot Chili Peppers - Easily Chords & Tabs

 

Easily Chords & Tabs

Red Hot Chili Peppers Chords & Tabs

Version: 4 Type: Bass Tab 0 ratings
1 star 2 stars 3 stars 4 stars 5 stars
comments

Easily Bass Tab

Easily
Red Hot Chili Peppers
Bassist: Flea

Tabbed By : Cyrax
e-mail: blade_blood_strife@hotmail.com

Tuning: Standard tuning
I'm pretty sure this is the right way to play it after living on this song for a while...

Intro:

G|--------------------5----------------------------------------------|
D|-----------5------7---0-3-5-7-------5-7p5--------------------------|
A|---------7---5------------------5p7-------7------------------------|
E|---5---------------------------------------------------------------|

Main Verse: 

X3

G|--------------------------5-----------------------------------------|
D|--------------5---------7---0-3-3-3h3-5-7-7-7-----5-7-5-------------|
A|------------7---5-5-5h5-----------------------5h7-------------------|
E|---5-5-5h5----------------------------------------------------------|

G|--------------------------5-----------------------------------------|
D|--------------5---------7---0-3-3-3h3-5-7-7-7-7-7-7-7-7-7-----------|
A|------------7---5-5-5h5---------------------------------------------|
E|---5-5-5h5----------------------------------------------------------|

Chorus:

X2

G|-----9---------------------------------------------------------------|
D|-------10-------10---------5--------3--------------------------------|
A|----------10-10----10----5--------3----------------------------------|
E|---8-------------------3-----3--1-----1------------------------------|
[ Tab from: http://www.guitartabs.cc/tabs/r/red_hot_chili_peppers/easily_btab_ver_4.html ]
G|-----9---------------------------------------------------------------|
D|-------10-------10-------5------3------------------------------------|
A|----------10-10----10------5------3---3------------------------------|
E|---8-------------------3-----3------1--------------------------------|

G|-------------4------------------------4-5-4--------------------------|
D|-------7---5---5----------3-----------------5----------3-------------|
A|-----7-----------5------3---3----7-7----------5------3---------------|
E|---5---------------3--1--------5----------------3--1-----1-----------|

Play this bit on the 1st solo

G|-------------------------5-------------------------------------------|
D|-------------5---------7---0-3-3-3h3-5-7-7-7-/14-14------------------|
A|-----------7---5-5-5h5-----------------------------------------------|
E|---5-5-5h5-----------------------------------------------------------|

That's pretty much the whole structure of the song.
It also wouldn't hurt to put some of your own variations in:

G|-------------------------5-------------------------------------------|
D|-------------5---------7---0-3-3-3h3-5-7-/8-9-10-11-10-9-8-----------|
A|-----------7---5-5-5h5-----------------------------------------------|
E|---5-5-5h5-----------------------------------------------------------|

G|-------------------------5-----------------------7-9p7---------------|
D|-------------5---------7---0-3-3-3h3-5-7-7-7-7p9-------9-------------|
A|-----------7---5-5-5h5-----------------------------------------------|
E|---5-5-5h5-----------------------------------------------------------|

G|-------------------------5---------------/15p13----15p13----15p13----|
D|-------------5---------7---0-3-3-3h3-5-7-------14-------14--------14\|
A|-----------7---5-5-5h5-----------------------------------------------|
E|---5-5-5h5-----------------------------------------------------------|

Enjoy!
Comments