Red Hot Chili Peppers - Dosed Chords & Tabs

 

Dosed Chords & Tabs

Red Hot Chili Peppers Chords & Tabs

Version: 5 Type: Tab 0 ratings
1 star 2 stars 3 stars 4 stars 5 stars
comments

Dosed Tab

   
DOSED
As recorded by Red Hot Chili Peppers
(From the 2002 Album BY THE WAY)


Transcribed by Aidan Hampson

 Words and Music by Red Hot Chili Peppers
Arranged by Aidan Hampson
 

Gtr I (E A D G B E) - 'Clean 1'
Gtr II (E A D G B E) - 'Overdriven 1'
Gtr III (E A D G B E) - 'Distorted 1'
Gtr IV (E A D G B E) - 'Acoustic'


 Intro
  Moderate Rock Q=105
  Cmaj7                                 D               Em
 4/4
  Gtr I
   E  S  S  E  S  S  E  S  S  E  S  S    E  S  S  E S S  E  S S E  S  S
|-12-------12-------12-------12-------|-10-------10------7------7-------|
|-------12-------12-------12-------10-|-------10------8-------8------12-|
|----12-------12-------12-------11----|----11-------9-------9-----12----|
|-------------------------------------|---------------------------------|
|-------------------------------------|---------------------------------|
|-------------------------------------|---------------------------------|
|
| Gtr II
|  E  E     Q        E  E     Q          E  E     Q      E  E   Q
|-------------------------------------|---------------------------------|
|-------------------------------------|-------------------------8-------|
|-----------9-----------------9-------|---------------------------------|
|-------------------------------------|---------------------9-----------|
|-----7-----------------7-------------|--9--7-----5------7--------------|
|--8-----------------8----------------|---------------------------------|
|
| Gtr III
|  H                 Q        E  E       E  Q       E   +H
|-------------------------------------|---------------------------------|
|-------------------------------------|---------------------------------|
|-------------------------------------|--7------------------------------|
|-----------------------------9--9----|-----9-------9---(9)-------------|
|-------------------------------------|---------------------------------|
|-------------------------------------|---------------------------------|


  Cmaj7                                 D               Em
   E  S  S  E  S  S  E  S  S  E  S  S    E  S  S  E S S  E  S S E  S  S
|-12-------12-------12-------12-------|-10-------10------7------7--------|
|-------12-------12-------12-------10-|-------10------8-------8------12--|
|----12-------12-------12-------11----|----11-------9-------9-----12-----|
|-------------------------------------|----------------------------------|
|-------------------------------------|----------------------------------|
|-------------------------------------|----------------------------------|
|
|  E  E     Q        E  E     Q          E  E     Q      E  E   Q
|-------------------------------------|----------------------------------|
|-------------------------------------|-------------------------8--------|
|-----------9-----------------9-------|----------------------------------|
|-------------------------------------|---------------------9------------|
|-----7-----------------7-------------|--9--7-----5------7---------------|
|--8-----------------8----------------|----------------------------------|
|
|  H                 Q        E  E       E  Q       E   +H
|-------------------------------------|----------------------------------|
|-------------------------------------|----------------------------------|
|-------------------------------------|--7-------------------------------|
|-----------------------------9--9----|-----9-------9---(9)--------------|
|-------------------------------------|----------------------------------|
|-------------------------------------|----------------------------------|


  Cmaj7                                 D               Em
   E  S  S  E  S  S  E  S  S  E  S  S    E  S  S  E S S  E  S S E  S  S
|-12-------12-------12-------12-------|-10-------10------7------7-------|
|-------12-------12-------12-------10-|-------10------8-------8------12-|
|----12-------12-------12-------11----|----11-------9-------9-----12----|
|-------------------------------------|---------------------------------|
|-------------------------------------|---------------------------------|
|-------------------------------------|---------------------------------|
|
|  E  E     Q        E  E     Q          E  E     Q      E  E   Q
|-------------------------------------|---------------------------------|
|-------------------------------------|-------------------------8-------|
|-----------9-----------------9-------|---------------------------------|
|-------------------------------------|---------------------9-----------|
|-----7-----------------7-------------|--9--7-----5------7--------------|
|--8-----------------8----------------|---------------------------------|
|
|  H                 Q        E  E       E  Q       E   +H
|-------------------------------------|---------------------------------|
|-------------------------------------|---------------------------------|
|-------------------------------------|--7------------------------------|
|-----------------------------9--9----|-----9-------9---(9)-------------|
|-------------------------------------|---------------------------------|
|-------------------------------------|---------------------------------|


  Cmaj7                                 D                Em
   E  S  S  E  S  S  E  S  S  E  S  S    E   S  S  E S S  E  S S E  S  S
|-12-------12-------12-------12-------|-10--------10------7------7----------||
|-------12-------12-------12-------10-|--------10------8-------8------12----||
|----12-------12-------12-------11----|-----11-------9-------9-----12-------||
|-------------------------------------|-------------------------------------||
|-------------------------------------|-------------------------------------||
|-------------------------------------|-------------------------------------||
|
|  E  E     Q        E  E     Q          E   E     Q      E  E   Q
|-------------------------------------|-------------------------------------||
|-------------------------------------|--------------------------8----------||
|-----------9-----------------9-------|-------------------------------------||
|-------------------------------------|----------------------9--------------||
|-----7-----------------7-------------|--9---7-----5------7-----------------||
|--8-----------------8----------------|-------------------------------------||
|
|  H                 E  E     E  E      +E   Q       E   +H
|-------------------------------------|-------------------------------------||
|-------------------------------------|-------------------------------------||
|--------------------------------7----|-(7)--9------------------------------||
|-----------------------9-----9-------|--------------9---(9)----------------||
|-------------------------------------|-------------------------------------||
|-------------------------------------|-------------------------------------||


   Verse
    $
    Cmaj7                                 D                  Em
     E  S  S  E  S  S  E  S  S  E  S  S     E   S  S  E  S S   E  S S E  S  S
||--12-------12-------12-------12-------|--10--------10--------7------7-------|
||o-------12-------12-------12-------10-|---------10-------8--------8------12-|
||-----12-------12-------12-------11----|------11--------9--------9-----12----|
||--------------------------------------|-------------------------------------|
||o-------------------------------------|-------------------------------------|
||--------------------------------------|-------------------------------------|
|
|    E  E     Q        E  E     Q           E   E     Q        H
||--------------------------------------|-------------------------------------|
||o-------------------------------------|-------------------------------------|
||------------9-----------------9-------|-------------------------------------|
||--------------------------------------|-------------------------------------|
||o-----7-----------------7-------------|---9---7-----5--------7--------------|
||---8-----------------8----------------|-------------------------------------|
|
|    H                 Q        E  E       +E   Q        E    +H
||--------------------------------10----|-(10)--------------------------------|
||o-------------------------------------|-------------------------------------|
||--------------------------------------|------11-------12---(12)-------------|
||--------------------------------------|-------------------------------------|
||o-------------------------------------|-------------------------------------|
||--------------------------------------|-------------------------------------|


  Cmaj7                                 D                  Em
   E  S  S  E  S  S  E  S  S  E  S  S     E   S  S  E  S S   E  S S E  S  S
|-12-------12-------12-------12-------|--10--------10--------7------7--------|
|-------12-------12-------12-------10-|---------10-------8--------8------12--|
|----12-------12-------12-------11----|------11--------9--------9-----12-----|
|-------------------------------------|--------------------------------------|
|-------------------------------------|--------------------------------------|
|-------------------------------------|--------------------------------------|
|
|  E  E     Q        E  E     Q           E   E     Q        H
|-------------------------------------|--------------------------------------|
|-------------------------------------|--------------------------------------|
|-----------9-----------------9-------|--------------------------------------|
|-------------------------------------|--------------------------------------|
|-----7-----------------7-------------|---9---7-----5--------7---------------|
|--8-----------------8----------------|--------------------------------------|
|
|  H                 Q        E  E       +E   Q        E    +H
|-------------------------------10----|-(10)---------------------------------|
|-------------------------------------|--------------------------------------|
|-------------------------------------|------11-------12---(12)--------------|
|-------------------------------------|--------------------------------------|
|-------------------------------------|--------------------------------------|
|-------------------------------------|--------------------------------------|


  Cmaj7                                 D                  Em
   E  S  S  E  S  S  E  S  S  E  S  S     E   S  S  E  S S   E  S S E  S  S
|-12-------12-------12-------12-------|--10--------10--------7------7-------|
|-------12-------12-------12-------10-|---------10-------8--------8------12-|
|----12-------12-------12-------11----|------11--------9--------9-----12----|
|-------------------------------------|-------------------------------------|
|-------------------------------------|-------------------------------------|
|-------------------------------------|-------------------------------------|
|
|  E  E     Q        E  E     Q           E   E     Q        H
|-------------------------------------|-------------------------------------|
|-------------------------------------|-------------------------------------|
|-----------9-----------------9-------|-------------------------------------|
|-------------------------------------|-------------------------------------|
|-----7-----------------7-------------|---9---7-----5--------7--------------|
|--8-----------------8----------------|-------------------------------------|
|
|  H                 Q        E  E       +E   Q        E    +H
|-------------------------------10----|-(10)--------------------------------|
|-------------------------------------|-------------------------------------|
|-------------------------------------|------11-------12---(12)-------------|
|-------------------------------------|-------------------------------------|
|-------------------------------------|-------------------------------------|
|-------------------------------------|-------------------------------------|


                                                                To Coda
  Cmaj7                                 D               Em
   E  S  S  E  S  S  E  S  S  E  S  S    E  S  S  E S S  E S S E  S  S
|-12-------12-------12-------12-------|-10-------10------7-----7----------|
|-------12-------12-------12-------10-|-------10------8------8------12----|
|----12-------12-------12-------11----|----11-------9------9-----12-------|
|-------------------------------------|-----------------------------------|
|-------------------------------------|-----------------------------------|
|-------------------------------------|-----------------------------------|
|
|  E  E     Q        E  E     Q          E  E     Q      H
|-------------------------------------|-----------------------------------|
|-------------------------------------|-----------------------------------|
|-----------9-----------------9-------|-----------------------------------|
|-------------------------------------|-----------------------------------|
|-----7-----------------7-------------|--9--7-----5------7----------------|
|--8-----------------8----------------|-----------------------------------|
|
|  H                 Q        E  E       E  E     Q      H
|-------------------------------19----|-17--------------------------------|
|-------------------------------------|----20----19-----20----------------|
|-------------------------------------|-----------------------------------|
|-------------------------------------|-----------------------------------|
|-------------------------------------|-----------------------------------|
|-------------------------------------|-----------------------------------|


  Cmaj7                                 D               Em
   E  S  S  E  S  S  E  S  S  E  S  S    E  S  S  E S S  E S S E  S  S
|-12-------12-------12-------12-------|-10-------10------7-----7-------||
|-------12-------12-------12-------10-|-------10------8------8------12-||
|----12-------12-------12-------11----|----11-------9------9-----12----||
|-------------------------------------|--------------------------------||
|-------------------------------------|--------------------------------||
|-------------------------------------|--------------------------------||
|
|  E  E     Q        E  E     Q          E  E     Q      H
|-------------------------------------|--------------------------------||
|-------------------------------------|--------------------------------||
|-----------9-----------------9-------|--------------------------------||
|-------------------------------------|--------------------------------||
|-----7-----------------7-------------|--9--7-----5------7-------------||
|--8-----------------8----------------|--------------------------------||
|
|  H                 Q        E  E       E  E     Q      H
|-------------------------------15----|-14-12-----------12-------------||
|-------------------------------------|----------15--------------------||
|-------------------------------------|--------------------------------||
|-------------------------------------|--------------------------------||
|-------------------------------------|--------------------------------||
|-------------------------------------|--------------------------------||


 Pre-Verse
  1.
  Cmaj7                                 D               Em
   E  S  S  E  S  S  E  S  S  E  S  S    E  S  S  E S S  E  S S E  S  S
|-12-------12-------12-------12-------|-10-------10------7------7-------|
|-------12-------12-------12-------10-|-------10------8-------8------12-|
|----12-------12-------12-------11----|----11-------9-------9-----12----|
|-------------------------------------|---------------------------------|
|-------------------------------------|---------------------------------|
|-------------------------------------|---------------------------------|
|
|  E  E     Q        E  E     Q          E  E     Q      E  E   Q
|-------------------------------------|---------------------------------|
|-------------------------------------|-------------------------8-------|
|-----------9-----------------9-------|---------------------------------|
|-------------------------------------|---------------------9-----------|
|-----7-----------------7-------------|--9--7-----5------7--------------|
|--8-----------------8----------------|---------------------------------|
|
|  H                 Q        E  E       E  Q       E   +H
|-------------------------------------|---------------------------------|
|-------------------------------------|---------------------------------|
|-------------------------------------|--7------------------------------|
|-----------------------------9--9----|-----9-------9---(9)-------------|
|-------------------------------------|---------------------------------|
|-------------------------------------|---------------------------------|


  Cmaj7                                 D               Em
   E  S  S  E  S  S  E  S  S  E  S  S    E  S  S  E S S  E  S S E  S  S
|-12-------12-------12-------12-------|-10-------10------7------7-----------||
|-------12-------12-------12-------10-|-------10------8-------8------12----o||
|----12-------12-------12-------11----|----11-------9-------9-----12--------||
|-------------------------------------|-------------------------------------||
|-------------------------------------|------------------------------------o||
|-------------------------------------|-------------------------------------||
|
|  E  E     Q        E  E     Q          E  E     Q      E  E   Q
|-------------------------------------|-------------------------------------||
|-------------------------------------|-------------------------8----------o||
|-----------9-----------------9-------|-------------------------------------||
|-------------------------------------|---------------------9---------------||
|-----7-----------------7-------------|--9--7-----5------7-----------------o||
|--8-----------------8----------------|-------------------------------------||
|
|  H                 Q        E  E       E  Q       E   +H
|-------------------------------------|-------------------------------------||
|-------------------------------------|------------------------------------o||
|-------------------------------------|--7----------------------------------||
|-----------------------------9--9----|-----9-------9---(9)-----------------||
|-------------------------------------|------------------------------------o||
|-------------------------------------|-------------------------------------||


 Chorus
  2.
  G                    D
  Gtr IV
   W                    W
|--3-----------------|--2-----------------|
|--0-----------------|--3-----------------|
|--0-----------------|--2-----------------|
|--0-----------------|--0-----------------|
|--2-----------------|--------------------|
|--3-----------------|--------------------|
|
| Gtr II
|  Q.    E  +Q    Q     Q.    E  +Q    Q
|--------------------|-------12-(12)--14--|
|-12----13-(13)--13--|-15-----------------|
|-12----12-(12)--12--|-14-----------------|
|--------------------|--------------------|
|--------------------|--------------------|
|--------------------|--------------------|


  Em                     C
   W                     W
|--0-------------------|-0--------------------|
|--0-------------------|-1--------------------|
|--0-------------------|-0--------------------|
|--2-------------------|-2--------------------|
|--2-------------------|-3--------------------|
|--0-------------------|----------------------|
|
|  Q.    E  +E   E  Q    E  Q   E  +E   E  Q
|-12----12-(12)-12-12--|---15--14-(14)-12-----|
|-12----12-(12)-12-12--|------------------15--|
|----------------------|----------------------|
|----------------------|----------------------|
|----------------------|----------------------|
|----------------------|----------------------|


  G                       D
   W                       W
|--3--------------------|--2---------------------|
|--0--------------------|--3---------------------|
|--0--------------------|--2---------------------|
|--0--------------------|--0---------------------|
|--2--------------------|------------------------|
|--3--------------------|------------------------|
|
|  E  Q   E  +E   E  Q     Q.    E  +E   E  +Q
|-----------------------|------------------------|
|-12-10--13-(13)-13-13--|-10----12-(12)-13-(13)--|
|-12-12--12-(12)-12-12--|-11----11-(11)-11-(11)--|
|-----------------------|------------------------|
|-----------------------|------------------------|
|-----------------------|------------------------|


  Em                       C
   W                       W
|--0---------------------|-0--------------------|
|--0---------------------|-1--------------------|
|--0---------------------|-0--------------------|
|--2---------------------|-2--------------------|
|--2---------------------|-3--------------------|
|--0---------------------|----------------------|
|
|  Q.    E  +E   E  E  E   Q   E  E  E  E  +Q
|------------------------|----------------------|
|-12----12-(12)-12-12-12-|----12-12-15-12-(12)--|
|-12----12-(12)-12-12-12-|----12-12-12-12-(12)--|
|-14----14-(14)-14-14-14-|----14-14-14-14-(14)--|
|------------------------|----------------------|
|------------------------|----------------------|


  G                    D
   W                    W
|--3-----------------|--2-----------------|
|--0-----------------|--3-----------------|
|--0-----------------|--2-----------------|
|--0-----------------|--0-----------------|
|--2-----------------|--------------------|
|--3-----------------|--------------------|
|
|  Q.    E  +Q    Q     Q.    E  +Q    Q
|--------------------|-------12-(12)--14--|
|-12----13-(13)--13--|-15-----------------|
|-12----12-(12)--12--|-14-----------------|
|--------------------|--------------------|
|--------------------|--------------------|
|--------------------|--------------------|


  Em                     C
   W                     W
|--0-------------------|-0--------------------|
|--0-------------------|-1--------------------|
|--0-------------------|-0--------------------|
|--2-------------------|-2--------------------|
|--2-------------------|-3--------------------|
|--0-------------------|----------------------|
|
|  Q.    E  +E   E  Q    E  Q   E  +E   E  Q
|-12----12-(12)-12-12--|---15--14-(14)-12-----|
|-12----12-(12)-12-12--|------------------15--|
|----------------------|----------------------|
|----------------------|----------------------|
|----------------------|----------------------|
|----------------------|----------------------|


  G                       D
   W                       W
|--3--------------------|--2---------------------|
|--0--------------------|--3---------------------|
|--0--------------------|--2---------------------|
|--0--------------------|--0---------------------|
|--2--------------------|------------------------|
|--3--------------------|------------------------|
|
|  E  Q   E  +E   E  Q     Q.    E  +E   E  +Q
|-----------------------|------------------------|
|-12-10--13-(13)-13-13--|-10----12-(12)-10-(10)--|
|-12-12--12-(12)-12-12--|-11----11-(11)-11-(11)--|
|-----------------------|------------------------|
|-----------------------|------------------------|
|-----------------------|------------------------|


                                   D.S. al Coda
  Em                       C
   W                        W
|--0---------------------|--0-------------------||
|--0---------------------|--1-------------------||
|--0---------------------|--0-------------------||
|--2---------------------|--2-------------------||
|--2---------------------|--3-------------------||
|--0---------------------|----------------------||
|
|  Q.    E  +E   E  E  E    Q.    E  +E   E  Q
|------------------------|----------------------||
|-12----12-(12)-12-12-12-|-12----15-(15)-15-15--||
|-12----12-(12)-12-12-12-|-12----12-(12)-12-12--||
|-14----14-(14)-14-14-14-|-14----14-(14)-14-14--||
|------------------------|----------------------||
|------------------------|----------------------||


  &
  Cmaj7                                 D               Em
  Gtr I
   E  S  S  E  S  S  E  S  S  E  S  S    E  S  S  E S S  E S S E  S  S
|-12-------12-------12-------12-------|-10-------10------7-----7-------|
|-------12-------12-------12-------10-|-------10------8------8------12-|
|----12-------12-------12-------11----|----11-------9------9-----12----|
|-------------------------------------|--------------------------------|
|-------------------------------------|--------------------------------|
|-------------------------------------|--------------------------------|
|
| Gtr II
|  E  E     Q        E  E     Q          E  E     Q      H
|-------------------------------------|--------------------------------|
|-------------------------------------|--------------------------------|
|-----------9-----------------9-------|--------------------------------|
|-------------------------------------|--------------------------------|
|-----7-----------------7-------------|--9--7-----5------7-------------|
|--8-----------------8----------------|--------------------------------|
|
| Gtr III
|  H                 Q        E  E       E  E     Q      H
|-------------------------------19----|-17-----------------------------|
|-------------------------------------|----20----19-----20-------------|
|-------------------------------------|--------------------------------|
|-------------------------------------|--------------------------------|
|-------------------------------------|--------------------------------|
|-------------------------------------|--------------------------------|


  Cmaj7                                 D               Em
   E  S  S  E  S  S  E  S  S  E  S  S    E  S  S  E S S  E S S E  S  S
|-12-------12-------12-------12-------|-10-------10------7-----7----------|
|-------12-------12-------12-------10-|-------10------8------8------12----|
|----12-------12-------12-------11----|----11-------9------9-----12-------|
|-------------------------------------|-----------------------------------|
|-------------------------------------|-----------------------------------|
|-------------------------------------|-----------------------------------|
|
|  E  E     Q        E  E     Q          E  E     Q      H
|-------------------------------------|-----------------------------------|
|-------------------------------------|-----------------------------------|
|-----------9-----------------9-------|-----------------------------------|
|-------------------------------------|-----------------------------------|
|-----7-----------------7-------------|--9--7-----5------7----------------|
|--8-----------------8----------------|-----------------------------------|
|
|  H                 Q        E  E       E  E     Q      H
|-------------------------------15----|-14-12-----------12----------------|
|-------------------------------------|----------15-----------------------|
|-------------------------------------|-----------------------------------|
|-------------------------------------|-----------------------------------|
|-------------------------------------|-----------------------------------|
|-------------------------------------|-----------------------------------|


  Cmaj7                                 D               Em
   E  S  S  E  S  S  E  S  S  E  S  S    E  S  S  E S S  E S S E  S  S
|-12-------12-------12-------12-------|-10-------10------7-----7-------||
|-------12-------12-------12-------10-|-------10------8------8------12-||
|----12-------12-------12-------11----|----11-------9------9-----12----||
|-------------------------------------|--------------------------------||
|-------------------------------------|--------------------------------||
|-------------------------------------|--------------------------------||
|
|  E  E     Q        E  E     Q          E  E     Q      H
|-------------------------------------|--------------------------------||
|-------------------------------------|--------------------------------||
|-----------9-----------------9-------|--------------------------------||
|-------------------------------------|--------------------------------||
|-----7-----------------7-------------|--9--7-----5------7-------------||
|--8-----------------8----------------|--------------------------------||
|
|  H                 Q        E  E       E  E     Q      H
|-------------------------------15----|-14-12-----------12-------------||
|-------------------------------------|----------15--------------------||
|-------------------------------------|--------------------------------||
|-------------------------------------|--------------------------------||
|-------------------------------------|--------------------------------||
|-------------------------------------|--------------------------------||


 Chorus
  $$
  G                    D
  Gtr IV
   W                    W
|--3-----------------|--2-----------------|
|--0-----------------|--3-----------------|
|--0-----------------|--2-----------------|
|--0-----------------|--0-----------------|
|--2-----------------|--------------------|
|--3-----------------|--------------------|
|
| Gtr II
|  Q.    E  +Q    Q     Q.    E  +Q    Q
|--------------------|-------12-(12)--14--|
|-12----13-(13)--13--|-15-----------------|
|-12----12-(12)--12--|-14-----------------|
|--------------------|--------------------|
|--------------------|--------------------|
|--------------------|--------------------|


  Em                     C
   W                     W
|--0-------------------|-0--------------------|
|--0-------------------|-1--------------------|
|--0-------------------|-0--------------------|
|--2-------------------|-2--------------------|
|--2-------------------|-3--------------------|
|--0-------------------|----------------------|
|
|  Q.    E  +E   E  Q    E  Q   E  +E   E  Q
|-12----12-(12)-12-12--|---15--14-(14)-12-----|
|-12----12-(12)-12-12--|------------------15--|
|----------------------|----------------------|
|----------------------|----------------------|
|----------------------|----------------------|
|----------------------|----------------------|

[ Tab from: http://www.guitartabs.cc/tabs/r/red_hot_chili_peppers/dosed_tab_ver_5.html ]
  G                       D
   W                       W
|--3--------------------|--2---------------------|
|--0--------------------|--3---------------------|
|--0--------------------|--2---------------------|
|--0--------------------|--0---------------------|
|--2--------------------|------------------------|
|--3--------------------|------------------------|
|
|  E  Q   E  +E   E  Q     Q.    E  +E   E  +Q
|-----------------------|------------------------|
|-12-10--13-(13)-13-13--|-10----12-(12)-13-(13)--|
|-12-12--12-(12)-12-12--|-11----11-(11)-11-(11)--|
|-----------------------|------------------------|
|-----------------------|------------------------|
|-----------------------|------------------------|


  Em                       C
   W                       W
|--0---------------------|-0--------------------|
|--0---------------------|-1--------------------|
|--0---------------------|-0--------------------|
|--2---------------------|-2--------------------|
|--2---------------------|-3--------------------|
|--0---------------------|----------------------|
|
|  Q.    E  +E   E  E  E   Q   E  E  E  E  +Q
|------------------------|----------------------|
|-12----12-(12)-12-12-12-|----12-12-15-12-(12)--|
|-12----12-(12)-12-12-12-|----12-12-12-12-(12)--|
|-14----14-(14)-14-14-14-|----14-14-14-14-(14)--|
|------------------------|----------------------|
|------------------------|----------------------|


  G                    D
   W                    W
|--3-----------------|--2-----------------|
|--0-----------------|--3-----------------|
|--0-----------------|--2-----------------|
|--0-----------------|--0-----------------|
|--2-----------------|--------------------|
|--3-----------------|--------------------|
|
|  Q.    E  +Q    Q     Q.    E  +Q    Q
|--------------------|-------12-(12)--14--|
|-12----13-(13)--13--|-15-----------------|
|-12----12-(12)--12--|-14-----------------|
|--------------------|--------------------|
|--------------------|--------------------|
|--------------------|--------------------|


  Em                     C
   W                     W
|--0-------------------|-0--------------------|
|--0-------------------|-1--------------------|
|--0-------------------|-0--------------------|
|--2-------------------|-2--------------------|
|--2-------------------|-3--------------------|
|--0-------------------|----------------------|
|
|  Q.    E  +E   E  Q    E  Q   E  +E   E  Q
|-12----12-(12)-12-12--|---15--14-(14)-12-----|
|-12----12-(12)-12-12--|------------------15--|
|----------------------|----------------------|
|----------------------|----------------------|
|----------------------|----------------------|
|----------------------|----------------------|


                                    To Dbl. Coda
  G                       D
   W                       W
|--3--------------------|--2---------------------|
|--0--------------------|--3---------------------|
|--0--------------------|--2---------------------|
|--0--------------------|--0---------------------|
|--2--------------------|------------------------|
|--3--------------------|------------------------|
|
|  E  Q   E  +E   E  Q     Q.    E  +E   E  +Q
|-----------------------|------------------------|
|-12-10--13-(13)-13-13--|-10----12-(12)-13-(13)--|
|-12-12--12-(12)-12-12--|-11----11-(11)-11-(11)--|
|-----------------------|------------------------|
|-----------------------|------------------------|
|-----------------------|------------------------|


  Asus2
   W                        +W
|--0---------------------|--(0)-------------------------|
|--0---------------------|--(0)-------------------------|
|--2---------------------|--(2)-------------------------|
|--2---------------------|--(2)-------------------------|
|--0---------------------|--(0)-------------------------|
|------------------------|------------------------------|
|
|  Q.    E  +E   E  E  E    +E   E  E  E  +E   E  E  E
|------------------------|------------12-(12)-------12--|
|-12----12-(12)-12-12-12-|-(12)-12-12-12-(12)-12-12-12--|
|-12----12-(12)-12-12-12-|-(12)-12-12-12-(12)-12-12-12--|
|-14----14-(14)-14-14-14-|-(14)-14-14-14-(14)-14-14-14--|
|------------------------|------------------------------|
|------------------------|------------------------------|


  C
   W                        +W
|--0---------------------|--(0)--------------------||
|--1---------------------|--(1)--------------------||
|--0---------------------|--(0)--------------------||
|--2---------------------|--(2)--------------------||
|--3---------------------|--(3)--------------------||
|------------------------|-------------------------||
|
|  Q.    E  +E   E  E  E    +E   E  E  E  +Q    Q
|------------------------|-------------------------||
|-15----15-(15)-15-15-15-|-(15)-15-15-15-(15)--15--||
|-12----12-(12)-12-12-12-|-(12)-12-12-12-(12)--12--||
|-14----14-(14)-14-14-14-|-(14)-14-14-14-(14)--14--||
|------------------------|-------------------------||
|------------------------|-------------------------||


 Pre-Verse
  Cmaj7                                 D               Em
  Gtr I
   E  S  S  E  S  S  E  S  S  E  S  S    E  S  S  E S S  E  S S E  S  S
|-12-------12-------12-------12-------|-10-------10------7------7-------|
|-------12-------12-------12-------10-|-------10------8-------8------12-|
|----12-------12-------12-------11----|----11-------9-------9-----12----|
|-------------------------------------|---------------------------------|
|-------------------------------------|---------------------------------|
|-------------------------------------|---------------------------------|
|
| Gtr II
|  E  E     Q        E  E     Q          E  E     Q      H
|-------------------------------------|---------------------------------|
|-------------------------------------|---------------------------------|
|-----------9-----------------9-------|---------------------------------|
|-------------------------------------|---------------------------------|
|-----7-----------------7-------------|--9--7-----5------7--------------|
|--8-----------------8----------------|---------------------------------|
|
| Gtr III
|  H                 Q        E  E       E  Q       E   +H
|-------------------------------------|---------------------------------|
|-------------------------------------|---------------------------------|
|-------------------------------------|--7------------------------------|
|-----------------------------9--9----|-----9-------9---(9)-------------|
|-------------------------------------|---------------------------------|
|-------------------------------------|---------------------------------|


  Cmaj7                                 D                Em
   E  S  S  E  S  S  E  S  S  E  S  S    E   S  S  E S S  E  S S E  S  S
|-12-------12-------12-------12-------|-10--------10------7------7----------||
|-------12-------12-------12-------10-|--------10------8-------8------12----||
|----12-------12-------12-------11----|-----11-------9-------9-----12-------||
|-------------------------------------|-------------------------------------||
|-------------------------------------|-------------------------------------||
|-------------------------------------|-------------------------------------||
|
|  E  E     Q        E  E     Q          E   E     Q      H
|-------------------------------------|-------------------------------------||
|-------------------------------------|-------------------------------------||
|-----------9-----------------9-------|-------------------------------------||
|-------------------------------------|-------------------------------------||
|-----7-----------------7-------------|--9---7-----5------7-----------------||
|--8-----------------8----------------|-------------------------------------||
|
|  H                 E  E     E  E      +E   Q       E   +H
|-------------------------------------|-------------------------------------||
|-------------------------------------|-------------------------------------||
|--------------------------------7----|-(7)--9------------------------------||
|-----------------------9-----9-------|--------------9---(9)----------------||
|-------------------------------------|-------------------------------------||
|-------------------------------------|-------------------------------------||


 Verse
  Cmaj7                                 D                  Em
   E  S  S  E  S  S  E  S  S  E  S  S     E   S  S  E  S S   E  S S E  S  S
|-12-------12-------12-------12-------|--10--------10--------7------7-------|
|-------12-------12-------12-------10-|---------10-------8--------8------12-|
|----12-------12-------12-------11----|------11--------9--------9-----12----|
|-------------------------------------|-------------------------------------|
|-------------------------------------|-------------------------------------|
|-------------------------------------|-------------------------------------|
|
|  E  E     Q        E  E     Q           E   E     Q        H
|-------------------------------------|-------------------------------------|
|-------------------------------------|-------------------------------------|
|-----------9-----------------9-------|-------------------------------------|
|-------------------------------------|-------------------------------------|
|-----7-----------------7-------------|---9---7-----5--------7--------------|
|--8-----------------8----------------|-------------------------------------|
|
|  H                 Q        E  E       +E   Q        E    +H
|-------------------------------10----|-(10)--------------------------------|
|-------------------------------------|-------------------------------------|
|-------------------------------------|------11-------12---(12)-------------|
|-------------------------------------|-------------------------------------|
|-------------------------------------|-------------------------------------|
|-------------------------------------|-------------------------------------|


  Cmaj7                                 D                  Em
   E  S  S  E  S  S  E  S  S  E  S  S     E   S  S  E  S S   E  S S E  S  S
|-12-------12-------12-------12-------|--10--------10--------7------7----------|
|-------12-------12-------12-------10-|---------10-------8--------8------12----|
|----12-------12-------12-------11----|------11--------9--------9-----12-------|
|-------------------------------------|----------------------------------------|
|-------------------------------------|----------------------------------------|
|-------------------------------------|----------------------------------------|
|
|  E  E     Q        E  E     Q           E   E     Q        H
|-------------------------------------|----------------------------------------|
|-------------------------------------|----------------------------------------|
|-----------9-----------------9-------|----------------------------------------|
|-------------------------------------|----------------------------------------|
|-----7-----------------7-------------|---9---7-----5--------7-----------------|
|--8-----------------8----------------|----------------------------------------|
|
|  H                 Q        E  E       +E   Q        E    +H
|-------------------------------10----|-(10)-----------------------------------|
|-------------------------------------|----------------------------------------|
|-------------------------------------|------11-------12---(12)----------------|
|-------------------------------------|----------------------------------------|
|-------------------------------------|----------------------------------------|
|-------------------------------------|----------------------------------------|


  Cmaj7                                 D                  Em
   E  S  S  E  S  S  E  S  S  E  S  S     E   S  S  E  S S   E  S S E  S  S
|-12-------12-------12-------12-------|--10--------10--------7------7-------|
|-------12-------12-------12-------10-|---------10-------8--------8------12-|
|----12-------12-------12-------11----|------11--------9--------9-----12----|
|-------------------------------------|-------------------------------------|
|-------------------------------------|-------------------------------------|
|-------------------------------------|-------------------------------------|
|
|  E  E     Q        E  E     Q           E   E     Q        H
|-------------------------------------|-------------------------------------|
|-------------------------------------|-------------------------------------|
|-----------9-----------------9-------|-------------------------------------|
|-------------------------------------|-------------------------------------|
|-----7-----------------7-------------|---9---7-----5--------7--------------|
|--8-----------------8----------------|-------------------------------------|
|
|  H                 Q        E  E       +E   Q        E    +H
|-------------------------------10----|-(10)--------------------------------|
|-------------------------------------|-------------------------------------|
|-------------------------------------|------11-------12---(12)-------------|
|-------------------------------------|-------------------------------------|
|-------------------------------------|-------------------------------------|
|-------------------------------------|-------------------------------------|


  Cmaj7                                 D               Em
   E  S  S  E  S  S  E  S  S  E  S  S    E  S  S  E S S  E S S E  S  S
|-12-------12-------12-------12-------|-10-------10------7-----7----------|
|-------12-------12-------12-------10-|-------10------8------8------12----|
|----12-------12-------12-------11----|----11-------9------9-----12-------|
|-------------------------------------|-----------------------------------|
|-------------------------------------|-----------------------------------|
|-------------------------------------|-----------------------------------|
|
|  E  E     Q        E  E     Q          E  E     Q      H
|-------------------------------------|-----------------------------------|
|-------------------------------------|-----------------------------------|
|-----------9-----------------9-------|-----------------------------------|
|-------------------------------------|-----------------------------------|
|-----7-----------------7-------------|--9--7-----5------7----------------|
|--8-----------------8----------------|-----------------------------------|
|
|  H                 Q        E  E       E  E     Q      H
|-------------------------------19----|-17--------------------------------|
|-------------------------------------|----20----19-----20----------------|
|-------------------------------------|-----------------------------------|
|-------------------------------------|-----------------------------------|
|-------------------------------------|-----------------------------------|
|-------------------------------------|-----------------------------------|


  Cmaj7                                 D               Em
   E  S  S  E  S  S  E  S  S  E  S  S    E  S  S  E S S  E S S E  S  S
|-12-------12-------12-------12-------|-10-------10------7-----7-------|
|-------12-------12-------12-------10-|-------10------8------8------12-|
|----12-------12-------12-------11----|----11-------9------9-----12----|
|-------------------------------------|--------------------------------|
|-------------------------------------|--------------------------------|
|-------------------------------------|--------------------------------|
|
|  E  E     Q        E  E     Q          E  E     Q      H
|-------------------------------------|--------------------------------|
|-------------------------------------|--------------------------------|
|-----------9-----------------9-------|--------------------------------|
|-------------------------------------|--------------------------------|
|-----7-----------------7-------------|--9--7-----5------7-------------|
|--8-----------------8----------------|--------------------------------|
|
|  H                 Q        E  E       E  E     Q      H
|-------------------------------19----|-17-----------------------------|
|-------------------------------------|----20----19-----20-------------|
|-------------------------------------|--------------------------------|
|-------------------------------------|--------------------------------|
|-------------------------------------|--------------------------------|
|-------------------------------------|--------------------------------|


  Cmaj7                                 D               Em
   E  S  S  E  S  S  E  S  S  E  S  S    E  S  S  E S S  E S S E  S  S
|-12-------12-------12-------12-------|-10-------10------7-----7----------|
|-------12-------12-------12-------10-|-------10------8------8------12----|
|----12-------12-------12-------11----|----11-------9------9-----12-------|
|-------------------------------------|-----------------------------------|
|-------------------------------------|-----------------------------------|
|-------------------------------------|-----------------------------------|
|
|  E  E     Q        E  E     Q          E  E     Q      H
|-------------------------------------|-----------------------------------|
|-------------------------------------|-----------------------------------|
|-----------9-----------------9-------|-----------------------------------|
|-------------------------------------|-----------------------------------|
|-----7-----------------7-------------|--9--7-----5------7----------------|
|--8-----------------8----------------|-----------------------------------|
|
|  H                 Q        E  E       E  E     Q      H
|-------------------------------15----|-14-12-----------12----------------|
|-------------------------------------|----------15-----------------------|
|-------------------------------------|-----------------------------------|
|-------------------------------------|-----------------------------------|
|-------------------------------------|-----------------------------------|
|-------------------------------------|-----------------------------------|


                                                 D.S.S. al Dbl. Coda
  Cmaj7                                 D               Em
   E  S  S  E  S  S  E  S  S  E  S  S    E  S  S  E S S  E S S E  S  S
|-12-------12-------12-------12-------|-10-------10------7-----7-------||
|-------12-------12-------12-------10-|-------10------8------8------12-||
|----12-------12-------12-------11----|----11-------9------9-----12----||
|-------------------------------------|--------------------------------||
|-------------------------------------|--------------------------------||
|-------------------------------------|--------------------------------||
|
|  E  E     Q        E  E     Q          E  E     Q      H
|-------------------------------------|--------------------------------||
|-------------------------------------|--------------------------------||
|-----------9-----------------9-------|--------------------------------||
|-------------------------------------|--------------------------------||
|-----7-----------------7-------------|--9--7-----5------7-------------||
|--8-----------------8----------------|--------------------------------||
|
|  H                 Q        E  E       E  E     Q      H
|-------------------------------15----|-14-12-----------12-------------||
|-------------------------------------|----------15--------------------||
|-------------------------------------|--------------------------------||
|-------------------------------------|--------------------------------||
|-------------------------------------|--------------------------------||
|-------------------------------------|--------------------------------||


  &&
  Asus2
  Gtr IV
   Q   E  E  +E   E  E  E    +E   E  E  E  +E   E  Q
|--0---0--0--(0)--0--0--0-|--(0)--0--0--0--(0)--0--0----|
|--0---0--0--(0)--0--0--0-|--(0)--0--0--0--(0)--0--0----|
|--2---2--2--(2)--2--2--2-|--(2)--2--2--2--(2)--2--2----|
|--2---2--2--(2)--2--2--2-|--(2)--2--2--2--(2)--2--2----|
|--0---0--0--(0)--0--0--0-|--(0)--0--0--0--(0)--0--0----|
|-------------------------|-----------------------------|
|
| Gtr II
|  Q.     E  +E   E  E  E    +E   E  E  E  +E   E  E  E
|-------------------------|------------12-(12)-------12-|
|-12-----12-(12)-12-12-12-|-(12)-12-12-12-(12)-12-12-12-|
|-12-----12-(12)-12-12-12-|-(12)-12-12-12-(12)-12-12-12-|
|-14-----14-(14)-14-14-14-|-(14)-14-14-14-(14)-14-14-14-|
|-------------------------|-----------------------------|
|-------------------------|-----------------------------|


  C
   Q   E  E  +E   E  E  E    +E   E  E  E  +E  E  Q
|-------------------------|--------------------------||
|--1---1--1--(1)--1--1--1-|--(1)--1--1--1--(1)-1--1--||
|--0---0--0--(0)--0--0--0-|--(0)--0--0--0--(0)-0--0--||
|--2---2--2--(2)--2--2--2-|--(2)--2--2--2--(2)-2--2--||
|--3---3--3--(3)--3--3--3-|--(3)--3--3--3--(3)-3--3--||
|-------------------------|--------------------------||
|
|  Q.     E  +E   E  E  E    +E   E  E  E  +Q     Q
|----------------------15-|-(15)-15-15-15-(15)---15--||
|-15-----15-(15)-15-15-15-|-(15)-15-15-15-(15)---15--||
|-12-----12-(12)-12-12-12-|-(12)-12-12-12-(12)---12--||
|-14-----14-(14)-14-14-14-|-(14)-14-14-14-(14)---14--||
|-------------------------|--------------------------||
|-------------------------|--------------------------||


   Outro
    Cmaj7                                 D                Em
    Gtr I
     E  S  S  E  S  S  E  S  S  E  S  S    E  S  S  E  S S   E   S S  E  S  S
||--12-------12-------12-------12-------|-10-------10--------7--------7-------|
||o-------12-------12-------12-------10-|-------10-------8---------8-------12-|
||-----12-------12-------12-------11----|----11--------9---------9------12----|
||--------------------------------------|-------------------------------------|
||o-------------------------------------|-------------------------------------|
||--------------------------------------|-------------------------------------|
|
|   Gtr II
|    E  E     Q        E  E     Q          E  E     Q        H
||--------------------------------------|-------------------------------------|
||o-------------------------------------|-------------------------------------|
||------------9-----------------9-------|-------------------------------------|
||--------------------------------------|-------------------------------------|
||o-----7-----------------7-------------|--9--7-----5--------7----------------|
||---8-----------------8----------------|-------------------------------------|
|
|   Gtr III
|    E  E     E  E     E  E     E  E       E  E     E  E    +E   E    Q
||--12-10----12-10----12-10----12-10----|-12-10-------------------------------|
||o-------------------------------------|----------12-12---(12)-12---12-------|
||--------------------------------------|-------------------------------------|
||--------------------------------------|-------------------------------------|
||o-------------------------------------|-------------------------------------|
||--------------------------------------|-------------------------------------|


  Cmaj7                                 D                Em
   E  S  S  E  S  S  E  S  S  E  S  S    E  S  S  E  S S   E   S S  E  S  S
|-12-------12-------12-------12-------|-10-------10--------7--------7---------|
|-------12-------12-------12-------10-|-------10-------8---------8-------12---|
|----12-------12-------12-------11----|----11--------9---------9------12------|
|-------------------------------------|---------------------------------------|
|-------------------------------------|---------------------------------------|
|-------------------------------------|---------------------------------------|
|
|  E  E     Q        E  E     Q          E  E     Q        H
|-------------------------------------|---------------------------------------|
|-------------------------------------|---------------------------------------|
|-----------9-----------------9-------|---------------------------------------|
|-------------------------------------|---------------------------------------|
|-----7-----------------7-------------|--9--7-----5--------7------------------|
|--8-----------------8----------------|---------------------------------------|
|
|  E  E     E  E     E  E     E  E       E  E     E  E    +E   E    Q
|-12-10----12-10----12-10----12-10----|-12-10---------------------------------|
|-------------------------------------|----------12-12---(12)-12---12---------|
|-------------------------------------|---------------------------------------|
|-------------------------------------|---------------------------------------|
|-------------------------------------|---------------------------------------|
|-------------------------------------|---------------------------------------|


  1.
  Cmaj7                                     D                  Em
   E  S  S  E  S  S   E   S  S   E   S  S     E   S  S  E  S S  E  S S  E  S  S
|-12-------12--------12---------12--------|--10--------10-------7-------7-------|
|-------12-------12---------12---------10-|---------10-------8-------8-------12-|
|----12-------12---------12---------11----|------11--------9-------9------12----|
|-----------------------------------------|-------------------------------------|
|-----------------------------------------|-------------------------------------|
|-----------------------------------------|-------------------------------------|
|
|  E  E     Q         E   E      Q            E   E     Q       H
|-----------------------------------------|-------------------------------------|
|-----------------------------------------|-------------------------------------|
|-----------9--------------------9--------|-------------------------------------|
|-----------------------------------------|-------------------------------------|
|-----7-------------------7---------------|---9---7-----5-------7---------------|
|--8------------------8-------------------|-------------------------------------|
|
|  E  E     E  E     +E   E     +E   E       +E   E     E  E    E  E    Q
|-----------------------------------------|-------------------------------------|
|-13-13----13-13----(13)-13----(13)-12----|-(12)--------------------------------|
|-----------------------------------------|------12----12-12---11-12---12-------|
|-----------------------------------------|-------------------------------------|
|-----------------------------------------|-------------------------------------|
|-----------------------------------------|-------------------------------------|


  Cmaj7                                         D                  Em
   E  S  S  E  S  S   E   S  S  E  S  S          E  S  S  E   S  S  E S S  E  S  S
|-12-------12--------12--------12-------|-------10-------10---------7------7---------||
|-------12-------12---------12-------10-|-------------10---------8------8-------12--o||
|----12-------12---------12-------11----|----------11---------9-------9------12------||
|---------------------------------------|--------------------------------------------||
|---------------------------------------|-------------------------------------------o||
|---------------------------------------|--------------------------------------------||
|
|  E  E     Q         E   E     Q                E  E     Q         H
|---------------------------------------|--------------------------------------------||
|---------------------------------------|-------------------------------------------o||
|-----------9-------------------9-------|--------------------------------------------||
|---------------------------------------|--------------------------------------------||
|-----7-------------------7-------------|--------9--7-----5---------7---------------o||
|--8------------------8-----------------|--------------------------------------------||
|
|  E  Q        E     +E   Q        E       +E    Q        E  +E     E      Q
|---------------------------------------|--------------------------------------------||
|-15-17-------15----(15)-17-------15----|-(15)--17-------15-(15)--------------------o||
|-16-17-------16----(16)-17-------16----|-(16)--17-------16-(16)---12-----12---------||
|---------------------------------------|--------------------------------------------||
|---------------------------------------|-------------------------------------------o||
|---------------------------------------|--------------------------------------------||


  2.
  C/E                        Em7/D
   Q.      E  +E   E  E  E     Q.      E  +E   E  Q
|--------------------------|---------------------------|
|-13------13-(13)-13-13-13-|--12------12-(12)-12-12----|
|-12------12-(12)-12-12-12-|--12------12-(12)-12-12----|
|-14------14-(14)-14-14-14-|--12------12-(12)-12-12----|
|--------------------------|---------------------------|
|--------------------------|---------------------------|
|
| Gtr III
|  Q    E  E  +E   E  E  E     Q    E  E  +E   E  E  E
|--------------------------|---------------------------|
|-15---15-15-(15)-15-15-15-|-/13---13-13-(13)-13-13s12-|
|--------------------------|---------------------------|
|--------------------------|---------------------------|
|--------------------------|---------------------------|
|--------------------------|---------------------------|


                                       H.=H
  Am7/E
   Q.    E  +E   E  E  E     Q    E  E  E     E   Q
|------------------------|----------------------------|
|-13----13-(13)-13-13-13-|--13---13-13-13----13--13---|
|-12----12-(12)-12-12-12-|--12---12-12-12----12--12---|
|-14----14-(14)-14-14-14-|--14---14-14-14----14--14---|
|------------------------|----------------------------|
|------------------------|----------------------------|
|
|  Q.    E  +H              +H          Q        +Q
|------------------------|----------------------------|
|-12----12-(12)----------|-(12)--------12b13r===(12)--|
|------------------------|----------------------------|
|------------------------|----------------------------|
|------------------------|----------------------------|
|------------------------|----------------------------|


  G
   W           +W
|-10--------|-(10)----*|
|-12--------|-(12)----*|
|-12--------|-(12)----*|
|-12--------|-(12)----*|
|-----------|---------*|
|-----------|---------*|
|
|  W           +W
|-10--------|-(10)----*|
|-----------|---------*|
|-----------|---------*|
|-----------|---------*|
|-----------|---------*|
|-----------|---------*|
Comments