Red Hot Chili Peppers - Dosed Chords & Tabs

 

Dosed Chords & Tabs

Red Hot Chili Peppers Chords & Tabs

Version: 11 Type: Tab 0 ratings
1 star 2 stars 3 stars 4 stars 5 stars
comments

Dosed Tab

this is my first tab so go easy on me if it's wrong.
I know that some of it is wrong like a part in the solo

standard tuning

Intro
----------------------------------------------------------|
-------8--------------8--------------8------------8-10----|
---9-9---9-9------9-9---9-9------9-9---9-9----9-9------9--|
----------------------------------------------------------|
----------------------------------------------------------|
----------------------------------------------------------|

John plays something at the end of each line but i'm not sure what.
Heres what he plays before the end of the verse

----12-11-9-7-9---------12-11-9-7---|
----------------------------------9-|
------------------------------------|
------------------------------------|
------------------------------------|
------------------------------------|

Chorus
This is the chord pattern I use but you can make up your own
----------------------------------------------------------------------
------------7-7-7-7-8-8-8-8----------------------------7-7-7-7-8-8-8-8
----4-4-4-4-7-7-7-7-9-9-9-9-9--9--12-11-9-7----4-4-4-4-7-7-7-7-9-9-9-9
----5-5-5-5-7-7-7-7-9-9-9-9-10-10--------------5-5-5-5-7-7-7-7-9-9-9-9
----5-5-5-5-5-5-5-5-7-7-7-7-10-10--------------5-5-5-5-5-5-5-5-7-7-7-7
----3-3-3-3-----------------8--8---------------3-3-3-3----------------
[ Tab from: http://www.guitartabs.cc/tabs/r/red_hot_chili_peppers/dosed_tab_ver_11.html ]
-------7---|       the second time you play the chorus dont play the 
-8-8-8---8-|       5,6 at the end just play this chord about X8
-9-9-9-----|  X2               |-12-|
-9-9-9-----|                   |-12-|
-7-7-7-----|       Im not too  |-14-|
-----------|       sure if this|-14-|
                   is the right|-12-|
                   chord but it|-12-|
                   sounds alright
                 
solo

------------------------------------------------------------------
------------------------------------------------------------------
----11-9-11-9-11-9-11-9-11-9-------------11-9-11-9-11-9-11-9-11-9-
-----------------------------11-11-11-11--------------------------
------------------------------------------------------------------
------------------------------------------------------------------

-------------------------------------------------------------------
-------------------------------------------------------------------
--------------------------------------8-9-8-9-8-9------11-9-11-9---
-11-11-11-11--9-9-9-9-9-8-8-8-8---------------------9-9------------
-----------------------/--------9-9-9------------------------------
----------------------/--------------------------------------------
 I'm not sure if this/part is right but it sounds alright
------------------------------------------------------------------
------------------------------------------------------------------
-11-9-11-9-11-9--------------11-9-11-9-11-9-11-9-11-9-------------
----------------11-11-11-11---------------------------11-11-11-11-
------------------------------------------------------------------
------------------------------------------------------------------

-------------------------------------------------|
-12-12-12-12-12-10-10-10-10-10-9-9-9-9-9---------|
-----------------------------------------9^-9-12-|
-------------------------------------------------|
-------------------------------------------------|
-------------------------------------------------|
Comments