Red Hot Chili Peppers - Dosed Chords & Tabs

 

Dosed Chords & Tabs

Red Hot Chili Peppers Chords & Tabs

Version: 10 Type: Tab 0 ratings
1 star 2 stars 3 stars 4 stars 5 stars
comments

Dosed Tab

   
Artist: Red Hot Chili Peppers
Song: Dosed
Tabbed by: Hampton666    

p = pull off
h = hammer on
b = bend

Intro:

(Guitar 1)

E|--12---12--12--12--12-----------
B|------12--12--12--12------------ repeat as much as necessary
G|-----12--12--12--12-------------
D|-------------------------------- (only play the first '12' once at the start)
A|--------------------------------   listen to song and you will see
E|--------------------------------

(Guitar 2)

E|--------------|--------------|--------------|-----------------------
B|--------------|--------------|--------------|-----------------------
G|--------------|--------------|--------------|-----------------------
D|--9-9-12-9-9--|--9-9-12-9-9--|--9-9-12-9-9--|--9-9-12--/14--9-------
A|--------------|--------------|--------------|-----------------------
E|--------------|--------------|--------------|----------------------- 

"I got dosed by you and..."   

    E|--------------------------      			
    B|-15p13--12----------------
    G|----------12--------------
    D|--------------------------
    A|--------------------------
    E|--------------------------

"Closer than most to you and..."

       E|--------------------------
       B|-15p13--12----------------
       G|----------12--------------
       D|--------------------------
       A|--------------------------
       E|--------------------------

"What am I supposed to do..."

        E|--------------------------
        B|-15p13--12----------------
        G|----------12--------------
        D|--------------------------
        A|--------------------------
        E|--------------------------
[ Tab from: http://www.guitartabs.cc/tabs/r/red_hot_chili_peppers/dosed_tab_ver_10.html ]
"Take it away I never had it anyway..."

      E|-------15-14-12-10-12------
      B|---------------------------
      G|---------------------------  
      D|---------------------------
      A|---------------------------
      E|---------------------------


Solo:

   |------------2x------------| 
  
E|---------------------------------------------------------------- |
B|--15-13-(5x)----10-10--10-10---11-11-11-11-10--6-6-6-5-6-6------ |
G|---------------------------------------------------------------- |
D|---------------------------------------------------------------- |
A|---------------------------------------------------------------- |
E|---------------------------------------------------------------- |

			  |------------2x------------|

E|--6-7-6-7-6-7-6------------------------------------------------- |
B|--7-7-7-7-7-7-7----------15-13-(5x)----10-10--10-10------------- |
G|----------------9-9-9------------------------------------------- |
D|---------------------------------------------------------------- |
A|---------------------------------------------------------------- |
E|---------------------------------------------------------------- |

E|---------------------------------------------------------------- |
B|-15b-15-15-15-15\--13b-13-13-13-13\--12b----12~--12b--15-------- |
G|---------------------------------------------------------------- |
D|---------------------------------------------------------------- |
A|---------------------------------------------------------------- |
E|---------------------------------------------------------------- |

this is my first tab and i did it by ear.
i don't know if this is 100% correct or not but to 
my ear it sounds the same.
Comments