Red Hot Chili Peppers - Dosed Solo Chords & Tabs

 

Dosed Solo Chords & Tabs

Red Hot Chili Peppers Chords & Tabs

Version: 1 Type: Tab 0 ratings
1 star 2 stars 3 stars 4 stars 5 stars
comments

Dosed Solo Tab

Artist : Red Hot Chili Peppers
Song : Dosed (solo)
Album : By the way
Tabbed by GraaF GiL - gilleke46@hotmail.com -

Riff 1

e-------------------------------||
B-------------------------------||
G--9-7-9-7-9-7-9-7-9------------||
D--------------------7/9-9-9-9--||
A-------------------------------||
E-------------------------------||

Riff 2
[ Tab from: http://www.guitartabs.cc/tabs/r/red_hot_chili_peppers/dosed_solo_tab.html ]
e----------------------------------------|
B----------------------------------------|
G----------------------------------------|
D--10-10-10-10-10-9----------------------|
A-------------------10-10-10-9/10-10-10--|
E----------------------------------------|

e-----------------------||
B-----------------------||
G--7-9-7-9-7-9----------||
D--------------9--------||
A----------------10-10--||
E-----------------------||

Riff 3

e---------------------------------------------||
B---------------------------------------------||
G---------------------------------------------||
D---------------------------------------------||
A--9/12-12-12-12/10-10-10-10/9-9-9-9/10/9/12--||
E---------------------------------------------||

It should be played like this:
Riff 1-1-2-1-1-3
Comments