Red Hot Chili Peppers - Dosed Chords & Tabs

 

Dosed Chords & Tabs

Red Hot Chili Peppers Chords & Tabs

Version: 4 Type: Bass Tab 0 ratings
1 star 2 stars 3 stars 4 stars 5 stars
comments

Dosed Bass Tab

Tabbed by Louis P

I've been playing bass for two years and it's really easy!!!
Artist:Red Hot Chilipeppers
Album:By the Way
Song:Dozed

Intro
||g----------------------
||d---Guitar-Intro-------
||a----------------------
||e----------------------

g---------------------------------------------------------------------
d----4-5---------4-5-------5-7----------9\--------4-5------4-5-----5-7
a3--3-------3--3-------5-7--------7-7---------3-3-------3-3------3-3--
e---------------------------------------------------------------------
[ Tab from: http://www.guitartabs.cc/tabs/r/red_hot_chili_peppers/dosed_btab_ver_4.html ]
g-------------------------------- ||
d-------9\-----------------------*||     Repeat This a Few Times
a-7-7----------------------------*||                Then,
e-------------------------------- ||



|| g---------------7/9--9-12-12---------------
||*d-------------7---------------14-12--------
||*a----3/5---5------------------------12-----
|| e--------------------------------------12--

g------------------------ ||
d------------------------*||         Repeat Twice and go back to Intro
a--3----3--3-------------*||         Without the guitar intro
e-------------5---5-5---- ||

Guitar Solo!

g---------------------9\7--------||
d------4--5------5/7-------7\5---||    That's pretty much the whole 
a-3--3------3--3-----------------||    Song.
e--------------------------------||
Comments