Red Hot Chili Peppers - Dosed Chords & Tabs

 

Dosed Chords & Tabs

Red Hot Chili Peppers Chords & Tabs

Version: 3 Type: Bass Tab 0 ratings
1 star 2 stars 3 stars 4 stars 5 stars
comments

Dosed Bass Tab

Red Hot Chili Peppers
Dosed Bass Tab
Transcibed by Chris Valente

This is one of my favorite songs off By the Way.
Everything pieces together so gracefully, and
there's great music coming from all the instruments.
Flea might use a pick on this, I'm not sure.
Have fun!


Verse

G-----------------------------------I----------I------------
D-----4-5-----4-5-----4-5-----------I----------I------------
A-3-3-----3-3-----5-5------\7-5-----I--7-5-----I--5-7-------
E-------------------------------7---I------8-7-I------8-7---
                           Fill 1      Fill 2     Fill 3

[ Tab from: http://www.guitartabs.cc/tabs/r/red_hot_chili_peppers/dosed_btab_ver_3.html ]
Chorus

G-------------7--7--7-7--9----------------------------------
D--5--5--5-5-----------------7-9--10--9-7-------------------
A-----------------------------------------10----------------
E-----------------------------------------------------------

G-------------4-5-------------------------------------------
D--5--5--5-5--------------------------7-9-------------------
A-----------------5--5--5-5--7--7-7-7-----------------------
E-----------------------------------------8--8--8-8---------

There are some more variations on the chorus, but i think
you'll get the basic idea from this.
Comments