Red Hot Chili Peppers - Dosed Chords & Tabs

 

Dosed Chords & Tabs

Red Hot Chili Peppers Chords & Tabs

Version: 2 Type: Bass Tab 0 ratings
1 star 2 stars 3 stars 4 stars 5 stars
comments

Dosed Bass Tab

Dosed
Red Hot Chili Peppers
Tabbed by pIRHANA


Note : There are lots of little variations ending the chorus throughout the song
       I know i haven't tabbed them all but i think this tab gives you the general idea 
       of the song. You can work out the small variations if you want or just improvise
       or just wait for somebody to tab them all if you're a lazy waster.
       Whatever you do - Enjoy :-)
       	
Main Riff

G---------------------------------------
D--------5--------5--------7-----7p5----
A-3-3-x3---3-3-x3---5-5-x5---7-7--------
E---------------------------------------

Variations 

G---------------------------------------
D--------5--------5--------7-----7\5----
A-3-3-x3---3-3-x3---5-5-x5---7-7--------
E---------------------------------------
[ Tab from: http://www.guitartabs.cc/tabs/r/red_hot_chili_peppers/dosed_btab_ver_2.html ]
G---------------------------------------
D--------5--------5--------7--------9---
A-3-3-x3---3-3-x3---5-5-x5---7-7-x7-----
E---------------------------------------

G------------------------9-7------------
D--------5--------5----------9\----------
A-3-3-x3---3-3-x3---5-5-----------------
E---------------------------------------

G------------------------9-7-9---9------
D--------5--------5--------------7------
A-3-3-x3---3-3-x3---5-5-----------------
E---------------------------------------

Chorus

G------------------------- 
D------------------------- 
A-----4/5/---6/7-7-7------  
E-3-3--------------------- 

Some Ending Variations for chorus

G---------------	
D---------------  
A-7-7--5-------- 
E--------3------

G---------------  
D---------------  
A-10-10-9-7----- 
E--------------- 

G-12-12-11-11-9-- 
D----------------  
A----------------
E----------------

G----------------
D---------------- 
A-10-10-x9-x7----
E----------------

Comments, questions ----> funkymonkey133@hotmail.com



Comments