Red Hot Chili Peppers - Dont Forget Me Chords & Tabs

 

Dont Forget Me Chords & Tabs

Red Hot Chili Peppers Chords & Tabs

Version: 4 Type: Tab 1 rating
1 star 2 stars 3 stars 4 stars 5 stars
comments

Dont Forget Me Tab

Song: Don’t Forget Me
Artist: Red Hot Chili Peppers
CD: By The Way
Track: 05
Tuning: Drop D [DADGBE]

Intro:
E-----------------------------------------------
B-----------------------------------------------
G-----------------------------------------------
D--7-X-X-X-X--3-X-X-X-X--10-X-X-X-X--5-X-X-X-X--
A--7-X-X-X-X--3-X-X-X-X--10-X-X-X-X--5-X-X-X-X--
D--7-X-X-X-X--3-X-X-X-X--10-X-X-X-X--5-X-X-X-X—-

Riff for Rest of Song:

E-------------------
B-------------------
G-------------------
D--7---3---10---5---       Hold each chord for 4 beats.
A--7---3---10---5---
D--7---3---10---5-—-

[ Tab from: http://www.guitartabs.cc/tabs/r/red_hot_chili_peppers/dont_forget_me_tab_ver_4.html ]
Solo
                        s-l-o-w
E--------------------------------------------------
B-10-8---10-8-----10-8---10-8---10-8---10-8--------
G------9------9-9------9------9------9------9-9----
D--------------------------------------------------
A--------------------------------------------------
D--------------------------------------------------

        s-l-o-w       s-l-o-w
E-----------------------------------------------------
B-10-8---10-8---10-8---10-8---10-8---10-8-----10-8----
G------9------9------9------9------9------9-9------9--
D-----------------------------------------------------
A-----------------------------------------------------
D-----------------------------------------------------

 s-l-o-w        s-l-o-w
E----------------------------------------------
B-10-8---10-8---10-8---------------------------
G------9------9------9-------------------------
D----------------------------------------------
A----------------------------------------------
D----------------------------------------------


Ending:
Repeat Intro several times until the song ends. 
The song stops on the 333XXX chord.
Comments