Red Hot Chili Peppers - Dont Forget Me Chords & Tabs

 

Dont Forget Me Chords & Tabs

Red Hot Chili Peppers Chords & Tabs

Version: 3 Type: Tab 0 ratings
1 star 2 stars 3 stars 4 stars 5 stars
comments

Dont Forget Me Tab

#-----------------------------------------------------------------------------#
#-- File created with Instab - http://www.pconline.com/~smcarey/instab.html --#
#-----------------------------------------------------------------------------#

Author/Artist: Red Hot Chili Peppers
Title: Don't Forget Me
Album: By the Way
Transcribed by: Chris Valente
Email: RedHotMetallica@aol.com

hot stuff! pick the whole thing up and don in 16th notes with digital delay
set to do triplets. Have fun!
Verse

-000000000000000000000000000000000000000000000000000000000000000000000000000--
------------------------------------------------------------------------------
------------------------------------------------------------------------------
------------------------------------------------------------------------------
------------------------------------------------------------------------------
------------------------------------------------------------------------------
 PM whole line                                                                

-5h7p5-55555555555555-----8p5---8p5---8p5---8p5-------------------------------
------------------------------5-----5-----5------5----------------------------
------------------------------------------------------------------------------
------------------------------------------------------------------------------
------------------------------------------------------------------------------
------------------------------------------------------------------------------
 do above twice then repeat from beginning                                    
[ Tab from: http://www.guitartabs.cc/tabs/r/red_hot_chili_peppers/dont_forget_me_tab_ver_3.html ]
--00000000000000000000000000000000000000000121212121212121212121212121212-----
------------------------------------------------------------------------------
------------------------------------------------------------------------------
------------------------------------------------------------------------------
------------------------------------------------------------------------------
------------------------------------------------------------------------------
 ..ill be there, tell me when you wanna go OOOOOOOOOOOOOOOOOOOOOOOOOO         

-17171717171717171717171717171717171717171717171717171717171717---------------
-17171717171717171717171717171717171717171717171717171717171717---------------
------------------------------------------------------------------------------
------------------------------------------------------------------------------
------------------------------------------------------------------------------
------------------------------------------------------------------------------
 Don't Forget me I can't hide it........                                      

-12------------------1212121215151515-12--------------------------------------
-------------------------------------------------------8/10/8---10-8----------
----12-1414141414------------------------121414141414---------9---------------
------------------------------------------------------------------------------
------------------------------------------------------------------------------
------------------------------------------------------------------------------
 Solo with Wah  Then back to beginning                                        

--5-3----5-3------5-3---5-3--------3/5/3---3/5/3-----3/5/3---3/5/3------------
------5------5-5------5---------5--------5-------5-5-------5---------5--------
------------------------------------------------------------------------------
------------------------------------------------------------------------------
------------------------------------------------------------------------------
------------------------------------------------------------------------------
 2nd Solo digital delay off  repeat a bunch of times & then verse till outro  

Comments