Red Hot Chili Peppers - Dont Forget Me Chords & Tabs

 

Dont Forget Me Chords & Tabs

Red Hot Chili Peppers Chords & Tabs

Version: 2 Type: Tab 0 ratings
1 star 2 stars 3 stars 4 stars 5 stars
comments

Dont Forget Me Tab

Song: Don't Forget Me
By: Red Hot Chili Peppers
Album: By The Way
Guitarist: John Frusciante
Tabbed By: Adam

Guitar1- Riff A:(clean)
e---------------------------------------------------------------
b---------------------------------------------------------------
g---------------------------------------------------------------
d---2--x-x-x-x--------------5--x-x-x-x--------------------------
a---0--x-x-x-x--3--x-x-x-x--3--x-x-x-x--5--x-x-x-x--------------
e---------------1--x-x-x-x--------------3--x-x-x-x--------------

Guitar2- Rhm.Fig.1:(palm muting, clean)
e--------------------------------------------------------------------
b--555555555555555555-ect--------------------------------------------
g--------------------------------------------------------------------
d--------------------------------------------------------------------
a--------------------------------------------------------------------
e--------------------------------------------------------------------

Guitar1 plays Riff A 4 times and then 2 times with guitar playing Rhm. Fig. 1

Guitar2- Riff B:(w. echo effect)(pick as fast as possible)
e---5h7-5h7-5h7-5h7-5h7-5h7-5h7 5h7-0h8-0h8-0h8-0h8-5h8-0h8-0h7-0h7-0h7-0h7-0h7-0h7-0h7
b--------------------------------------------------------------------------------------
g--------------------------------------------------------------------------------------
d--------------------------------------------------------------------------------------
a--------------------------------------------------------------------------------------
e--------------------------------------------------------------------------------------

Guitar2 plays Riff B 2 times while Guitar1 plays Riff A 2 times

Verse 2-> Guitar1 plays Riff A 2 times while Guitar 2 plays Rhm.Fig.1
          Guitar1 plays Riff A 2 times while Guitar 2 plays Riff B 2 times

CHORUS-->

Guitar1/2- Riff C:(distortion)
e------------------------------------------------------------------
b------------------------------------------------------------------
g--2--x-x-x-------------5--x-x-x-----------------------------------
d--2--x-x-x--3--x-x-x---5--x-x-x---5--x-x-x------------------------
a--0--x-x-x--3--x-x-x---3--x-x-x---5--x-x-x------------------------
e------------1--x-x-x--------------3--x-x-x------------------------
[ Tab from: http://www.guitartabs.cc/tabs/r/red_hot_chili_peppers/dont_forget_me_tab_ver_2.html ]
Guitar1/2- Fill 1:(fast picking)
e---17-17-17-17-17-17-17-17-17-17-17-etc-------------------------------
b----------------------------------------------------------------------
g----------------------------------------------------------------------
d----------------------------------------------------------------------
a----------------------------------------------------------------------
e----------------------------------------------------------------------

Bridge->(fast picking)
e--12-12-12-12-15-15-15-15----------------------------12-12-12-12-12-15-15-15-15-
b--------------------------10-10-10-10-10-10-10-10-10----------------------------
g--------------------------------------------------------------------------------
d--------------------------------------------------------------------------------
a--------------------------------------------------------------------------------
e--------------------------------------------------------------------------------

e--12-12-12-12-15-15-15-15---------------------------------------------------
b--------------------------10-10-10-10-10-10b1/4r-10b1/4r-10-10-10-8-10-8-5--
g----------------------------------------------------------------------------
d----------------------------------------------------------------------------
a----------------------------------------------------------------------------
e----------------------------------------------------------------------------

Verse 3-> Guitar1 plays Riff A twice while Guitar2 plays Rhm.Fig.1 
          Guitar1 plays Riff A twice while Guitar2 plays Riff B twice

2nd Chorus-> Play chorus twice

Solo->
Guitar2- Rhm.Fig.2:(distortion)
e---5--3-----5--3-----------------------------------------------------
b---------5--------5-5------------------------------------------------
g---------------------------------------------------------------------
d---------------------------------------------------------------------
a---------------------------------------------------------------------
e---------------------------------------------------------------------

Guitar1 plays Riff A 4 times while Guitar2 plays Rhm.Fig.2 8 times

Verse 4-> Guitar1 plays Riff A 2 times
          Guitar1 plays Riff A 2 times with Guitar2 playing Rhm.Fig.1

Outro-> Guitar1 plays Riff A 3 times with Guitar2 playing Rhm.Fig.1 (Guitar2 fades out on 3rd time)
        Guitar1 plays half of Riff A

I left out some little fills here and there, just improv with the notes your using and it'll sound good
Listen to the song to get the timing and such. If you've got any corrections or anything 
email me at pyro_guy19@hotmail.com

later
Comments