Red Hot Chili Peppers - Dont Forget Me Chords & Tabs

 

Dont Forget Me Chords & Tabs

Red Hot Chili Peppers Chords & Tabs

Version: 1 Type: Tab 3 ratings
1 star 2 stars 3 stars 4 stars 5 stars
comments

Dont Forget Me Tab

   
Artist: Red Hot Chilli Peppers
Song: Don’t forget me
Album: By the way
Track: 5
Comments: Easy song to play, hardest part is the picking of the higher strings (e,b) cos its really quick. Have fun, keep strumming. Jimbob ;-j

Intro/ Verse/ Chorus/ Outro riff 1

e-----------------------------------------------------------------------------------------------------
b-----------------------------------------------------------------------------------------------------
g------------------------------------------------------------------------------------------------------
d--------------------------5-x-x-x-x----------------------------------------------------------------
a-7-x-x-x-x-3-x-x-x-x-3-x-x-x-x-5-x-x-x-x----------------------------------------------------
E-5-x-x-x-x-1-x-x-x-x------------ 3-x-x-x-x----------------------------------------------------

Verse Guitar2  half way through the verse play this: (not exact number of times) riff 2

e-0-0-0-0-0-0-0-0-0-0-0-0-0-0-0-0-0-0-0-0-0-0-0-0-0-0-0-0-0-0-0-
the picking is well fast
[ Tab from: http://www.guitartabs.cc/tabs/r/red_hot_chili_peppers/dont_forget_me_tab.html ]
Bridge thingy (again, fast picking and not exact number of times) riff 3

e-5-5-5-5-5-5-5-5-5-5-5-5-5-5-5-5-5-5-5-5-8-8-8-8-8-8-8-8-8-8-8-8-8-8-8-8-8-8-

second verse is just riff one but with the e-0-0-0-0 and the bridge under it

chorus is just riff one

bridge  .=not exact number of times.. fast picking for most riff 4
  ………………………………………………………………………………………..
e-0-0-0-0-0-0-0-3-3-3-3-3-3-5-5-5-5-5-5-5----0-0-0-0-0-0-0-3-3-3-3-3-3-3-5-5-5-5-5-5-5-7h-5-3-0--5--3--0 let ring then go into the fast picking of e-0-0-0-0- for the verse

interlude thing riff 5

e-5-3-0--5-3-0--5-3-0--5--3--00--------- repeat a lot of times. It then goes into the last chorus the outro which is riff 1

ORDER

Intro (riff 1)                               Chorus (riff 1)
Verse (riff1)                              Interlude (riff 5)
Verse (riff 1 with riff 2)            Verse (riff 1)
Bridge thing (riff 3)                   Verse (riff 1 and 2)
Verse (riff 1 and 2)                    Outro (riff 1)
Verse (riff3)
Chorus (riff 1)
Bridge (riff 4)
Verse (riff 1 and 2 and 3)




Comments