Red Hot Chili Peppers - Dont Forget Me Chords & Tabs

 

Dont Forget Me Chords & Tabs

Red Hot Chili Peppers Chords & Tabs

Version: 7 Type: Bass Tab 0 ratings
1 star 2 stars 3 stars 4 stars 5 stars
comments

Dont Forget Me Bass Tab

O.K,
It's a VERY easy inro but still it's nice.
the verse goes like this too.

G|---9--xxxx--5--xxxx--12--xxxx--7--xxxx--9--xxxx--5--xxxx---------|
D|---7--xxxx--3--xxxx--10--xxxx--5--xxxx--7--xxxx--3--xxxx---------|
A|------xxxx-----xxxx------xxxx-----xxxx-----xxxx-----xxxx---------|
E|------xxxx-----xxxx------xxxx-----xxxx-----xxxx-----xxxx---------|
[ Tab from: http://www.guitartabs.cc/tabs/r/red_hot_chili_peppers/dont_forget_me_btab_ver_7.html ]
G|---12--xxxx--7--xx-x--9--xxxx--5--xxxxx--12--xxxx--5--xxxx-------|
D|---10--xxxx--5--xx-x--7--xxxx--3--xxxxx--10--xxxx--3--xxxx-------|
A|-------xxxx-----xx-x-----xxxx-----xxxxx------xxxx-----xxxx-------|
E|-------xxxx-----xx-x-----xxxx-----xxxxx------xxxx-----xxxx-------|

So most of the song is like this exept where I write:

G|--xx-x--|
D|--xx-x--|
A|--xx-x--|
E|--xx-x--|

In the rest of the song he does:

G|--xxxx--|
D|--xxxx--|
A|--xxxx--|
E|--xxxx--|

Enjoy!

And PLEASE make comments!
Comments