Red Hot Chili Peppers - Dont Forget Me Chords & Tabs

 

Dont Forget Me Chords & Tabs

Red Hot Chili Peppers Chords & Tabs

Version: 2 Type: Bass Tab 0 ratings
1 star 2 stars 3 stars 4 stars 5 stars
comments

Dont Forget Me Bass Tab

Red hot chilli peppers – don’t forget me.

Tabbed by bart        ajbart@hotmail.com

Its all ive got at the minute, but the rest will follow


   Intro-
[ Tab from: http://www.guitartabs.cc/tabs/r/red_hot_chili_peppers/dont_forget_me_btab_ver_2.html ]
G:|-14--xx--xx-|--10--xx--xx-|--17--xx--xx-|-12--xx-xx-|
D:|-14--xx--xx-|--10--xx--xx-|--17--xx--xx-|-12--xx-xx-|
A:|-12--xx--xx-|--8---xx--xx-|--15--xx--xx-|-10--xx-xx-|
E:|-----xx--xx-|------xx--xx-|------xx--xx-|-----xx-xx-|


Repeat a couple of times then for the last bar play:
 
 |-12--xx---x-
 |-12--xx---x-
 |-10--xx---x-
 |-----xx---x-

Listen to the timing of this bit to get it right
Comments