Red Hot Chili Peppers - Dont Foreget Me Chords & Tabs

 

Dont Foreget Me Chords & Tabs

Red Hot Chili Peppers Chords & Tabs

Version: 1 Type: Tab 1 rating
1 star 2 stars 3 stars 4 stars 5 stars
comments

Dont Foreget Me Tab

   
Artist: Red Hot Chilli Peppers
Album: By The Way
Song: Don’t Forget Me
Transcribed By: John Hugill  (SaintMusique)
E-mail: SaintMusique@HotMail.Com

The RHCP guitarist is one of the only guitarists that doesn't
Have to play like Yngwie to impress me, the RHCP have immense feel
I couldn’t get this song out of my head at Leeds Fest 2003!


Ok here is the bass Riff arranged for guitar:

E---------------------------------||
B---------------------------------||
G----------------5---xx----------.||
D--7---xx-3---xx-5---xx-5---xx---.||
A--7---xx-3---xx-3---xx-5---xx----||
E--5---xx-1---xx--------3---xx----||
   A5     F5     C5     G5

1st Guitar riff:
[ Tab from: http://www.guitartabs.cc/tabs/r/red_hot_chili_peppers/dont_foreget_me_tab.html ]
E-----------------------------||
B-----------------------------||
G-----------------------------||
D-----14-14-14-14-14-14-14-14-||
A-----------------------------||
E-----------------------------||


2nd Guitar riff:

E---5h8p5h8p5h8p5h8p5---------||
B-----------------------------||
G-----------------------------||
D-----------------------------||
A-----------------------------||
E-----------------------------||

Just the same as riff 2 but tap the E on the 12 threat

E---5h8p5h12p5h8p5h12---------||
B-----------------------------||
G-----------------------------||
D-----------------------------||
A-----------------------------||
E-----------------------------||

For the solo just play around with the "A pent scale", make the song your own.

If you’re stuck with any hard song and you’ve give it all you can
Send me an E-Mail and I’ll work it out for you!
Take It Easy People And Join The MU!
Comments