Red Hot Chili Peppers - Death Of A Martian Chords & Tabs

 

Death Of A Martian Chords & Tabs

Red Hot Chili Peppers Chords & Tabs

Version: 2 Type: Tab

Death Of A Martian Tab

                           Red Hot Chili Peppers
                             Death of a Martian

Tabbed By:Alex Adams
E-Mail:alex7adams@yahoo.co.uk

Tuning:ebgdae

Intro
[ Tab from: http://www.guitartabs.cc/tabs/r/red_hot_chili_peppers/death_of_a_martian_tab_ver_2.html ]
e|--8---11-8-11-8-11-8------6---10-6-10-6-10-6---------|
b|8---8----------------8--8---8----------------8-------|
g|-----------------------------------------------------|
d|-----------------------------------------------------|
a|-----------------------------------------------------|
e|-----------------------------------------------------|

e|--8---11-8-11-8-11-8--8-11-15-11-13-10-13-10-10---|  
b|8---8-------------------------------------------11|
g|--------------------------------------------------|
d|--------------------------------------------------|
a|--------------------------------------------------|
e|--------------------------------------------------|

I will try and figure the rest of the song out soon.