Red Hot Chili Peppers - Death Of A Martian Chords & Tabs

 

Death Of A Martian Chords & Tabs

Red Hot Chili Peppers Chords & Tabs

Version: 1 Type: Tab

Death Of A Martian Tab

   
-----------------------------------------------------------------------------
			     DEATH OF A MARTIAN - Red Hot Chili Peppers
-----------------------------------------------------------------------------
Tabbed by: Chapman Li (aka SonicYouthRules)
Email: chapman_li@hotmail.com

If you like, then plz give me a rating! Thx

Comments, requests, etc email above



INTRO/VERSES



e|--------------------------------------------------------------------------|
B|----------4-------4-------4-----------------------------------------------|
G|------5-------5-------5-------5-------------------------------------------|
D|--------------------------------------------------------------------------|
A|--3-3---3---3---3---3---3---3---3-----------------------------------------|
E|--------------------------------------------------------------------------|

e|--------------------------------------------------------------------------|
B|--------------------------------------------------------------------------|
G|----------7-------7-------7-----------------------------------------------|
D|------8-------8-------8-------8-------------------------------------------|
A|--------------------------------8-----------------------------------------|
E|--6-6---6---6---6---6---6---6---------------------------------------------|

e|--------------------------------------------------------------------------|
B|----------4-------4-------4-----------------------------------------------|
G|------5-------5-------5-------5-------------------------------------------|
D|--------------------------------------------------------------------------|
A|--3-3---3---3---3---3---3---3---3-----------------------------------------|
E|--------------------------------------------------------------------------|
[ Tab from: http://www.guitartabs.cc/tabs/r/red_hot_chili_peppers/death_of_a_martian_tab.html ]
e|--/3-3---/1-1---1---1-----------------------------------------------------|
B|------4-------3--3\-3--0--------------------------------------------------|
G|--------------------------------------------------------------------------|
D|--------------------------------------------------------------------------|
A|--------------------------------------------------------------------------|
E|--------------------------------------------------------------------------|



Fill 1 (0:38) - Verse variations

e|-------------------------------------------------------------------------|
B|-------------------------------------------------------------------------|
G|----------7-------7-------10-8-7-8---------------------------------------|
D|------8-------8-------8--------------------------------------------------|
A|-------------------------------------------------------------------------|
E|--6-6---6---6---6---6---6------------------------------------------------|

Fill 2 (0:45)

e|--/3-3-3-6\--/1-1---1---1-------------------------------------------------|
B|-------4-------3--3\-3--0-------------------------------------------------|
G|--------------------------------------------------------------------------|
D|--------------------------------------------------------------------------|
A|--------------------------------------------------------------------------|
E|--------------------------------------------------------------------------|


Pre-Chorus, pick the Cm chord (random notes) or can strum lightly the chord




CHORUS

C5 - Bb5 - F5 - Bb5

back to Verse




OUTRO (2:55)

Play arpeggio's of these chords until end

Cm - Bb - Fm - Ebm

i.e.


e|--------------------------------------------------------------------------|
B|--------4---------3---------11--------7-----------------------------------|
G|------5---------3---------10--------8-------------------------------------|
D|----5---------3--------10---------8---------------------------------------|
A|--3---------1--------8----------6-----------------------------------------|
E|--------------------------------------------------------------------------|



| /  slide up
| \  slide down
| h  hammer-on
| p  pull-off
| ~  vibrato
| +  harmonic
| x  Mute note
=============================================================================