Red Hot Chili Peppers - Dani California Chords & Tabs

 

Dani California Chords & Tabs

Red Hot Chili Peppers Chords & Tabs

Version: 7 Type: Tab 4 ratings
1 star 2 stars 3 stars 4 stars 5 stars
comments

Dani California Tab

   
KEY

h=hammer

b=bend

\=slide


E---8---------7--------- 10---------8-----------------------------------------------
B--10---------8----------10---------10----------------------------------------------
G---9-----7---7------10--10-------9-9---------------------------------------------    X9
D-----------------------------------------------------------------------------------
A-----------------------------------------------------------------------------------
E-----------------------------------------------------------------------------------

E---8---------7---------10-10-10-10-10-10-10-10-10-10-10-10\	
B--10---------8----------10-10-10-10-10-10-10-10-10-10-10-10\
G---9-----7---7------10--10-10-10-10-10-10-10-10-10-10-10-10\  
D-----------------------------------------------------------
A-----------------------------------------------------------
E-----------------------------------------------------------


E-----------------------------------------
B-----------------------------------------
G----------5-5-5-5-5-5-7-7-7-7-7-7-7------   X3
D--3-3-3-5-5-5-5-5-5-7-7-7-7-7-7-7-5-5-5-5
A--3-3-3-3-3-3-3-3-3-5-5-5-5-5-5-5-5-5-5-5
E--1-1-1---------------------------3-3-3-3


E-------------------------------------------------------
B-------------------------------------------------------
G----------5-5-5-5-5------------------------------------
D--3-3-3-5-5-5-5-5-5------------------------------------
A--3-3-3-3-3-3-3-3-3--5h7-7-5--5h7-7-5--5h7-7-5--5h7-7-5
E--1-1-1------------------------------------------------


E----------------------------------------
B-------------------------------------b20
G--b16--b14--b18--b20--b16--b14--b18-----
D----------------------------------------
A----------------------------------------
E----------------------------------------

E---8---------7----------10-----------8----------------------------------------------	
B--10---------8----------10----------10---------------------------------------------
G---9-----7---7------10--10-------9-- 9---------------------------------------------    X3
D-----------------------------------------------------------------------------------
A-----------------------------------------------------------------------------------
E-----------------------------------------------------------------------------------

E---8---------7--------- 10-10-10-10-10-10-10-10-10-10-10-10\	
B--10---------8----------10-10-10-10-10-10-10-10-10-10-10-10\
G---9-----7---7------10--10-10-10-10-10-10-10-10-10-10-10-10\  
D-----------------------------------------------------------
A-----------------------------------------------------------
E-----------------------------------------------------------

E------------------------------------------
B------------------------------------------
G--------5-5-5-5-5-5-5-7-7-7-7-7-7-7-------   X3
D--3-3-3-5-5-5-5-5-5-7-7-7-7-7-7-7-5-5-5-5-5
A--3-3-3-3-3-3-3-3-3-5-5-5-5-5-5-5-5-5-5-5-5
E--1-1-1-----------------------------3-3-3-3

E-------------------------------------------------------
B-------------------------------------------------------
G----------5-5-5-5-5------------------------------------
D--3-3-3-5-5-5-5-5-5------------------------------------
A--3-3-3-3-3-3-3-3-3--5h7-7-5--5h7-7-5--5h7-7-5--5h7-7-5
E--1-1-1------------------------------------------------

E------7--7--7--7--7--7--7--7--7--7--7
B------7- 8--7--8--7--8--7--7--7--7--7
G--7-7-7--9--7--9--7--9--7--7--7--7--7
D-------------------------------------
A-------------------------------------
E-------------------------------------

[ Tab from: http://www.guitartabs.cc/tabs/r/red_hot_chili_peppers/dani_california_tab_ver_7.html ]
E---8---------7----------10-----------8----------------------------------------------	
B--10---------8----------10----------10---------------------------------------------
G---9-----7---7------10--10-------9-- 9---------------------------------------------    X3
D-----------------------------------------------------------------------------------
A-----------------------------------------------------------------------------------
E-----------------------------------------------------------------------------------


E---8---------7--------- 10-10-10-10-10-10-10-10-10-10-10-10\	
B--10---------8----------10-10-10-10-10-10-10-10-10-10-10-10\
G---9-----7---7------10--10-10-10-10-10-10-10-10-10-10-10-10\  
D-----------------------------------------------------------
A-----------------------------------------------------------
E-----------------------------------------------------------

E------------------------------------------
B------------------------------------------
G--------5-5-5-5-5-5-5-7-7-7-7-7-7-7-------   X3
D--3-3-3-5-5-5-5-5-5-7-7-7-7-7-7-7-5-5-5-5-5
A--3-3-3-3-3-3-3-3-3-5-5-5-5-5-5-5-5-5-5-5-5
E--1-1-1-----------------------------3-3-3-3

E-------------------------------------------------------
B-------------------------------------------------------
G----------5-5-5-5-5------------------------------------
D--3-3-3-5-5-5-5-5-5------------------------------------
A--3-3-3-3-3-3-3-3-3--5h7-7-5--5h7-7-5--5h7-7-5--5h7-7-5
E--1-1-1------------------------------------------------

E------------------------------------------
B------------------------------------------
G--------5-5-5-5-5-5-5-7-7-7-7-7-7-7-------   X3
D--3-3-3-5-5-5-5-5-5-7-7-7-7-7-7-7-5-5-5-5-5
A--3-3-3-3-3-3-3-3-3-5-5-5-5-5-5-5-5-5-5-5-5
E--1-1-1-----------------------------3-3-3-3

E-------------------------------------------------------
B-------------------------------------------------------
G----------5-5-5-5-5------------------------------------
D--3-3-3-5-5-5-5-5-5------------------------------------
A--3-3-3-3-3-3-3-3-3--5h7-7-5--5h7-7-5--5h7-7-5--5h7-7-5
E--1-1-1------------------------------------------------

E--------------------------------------------------------------------------
B----6----------------------------------6----------------------------------
G---5-b7-------------------------------5--b7--2h5--2h5--2h5\7--14-17-17\b19
D--7-----2h5--2h5--2------------------7------------------------------------
A--------------------5-3--5-3----------------------------------------------
E------------------------5---12\-------------------------------------------

E-------------------------------------------------------------------------------------------------------------
B----6----------------------------------6----------------------------------------------------------------------
G---5-b7-------------------------------5--b7--2h5--2h5--2h5\7--14-17-17\b19-19-17-14-19-17-14-19-17-14-19-17-14
D--7-----2h5--2h5--2------------------7------------------------------------------------------------------------
A--------------------5-3--5-3----------------------------------------------------------------------------------
E-----------------------5----5-12\-----------------------------------------------------------------------------

E-----------------------------------
B----6------------------------------
G---5-b7----------------------------
D--7-----2h5--2h5--2----------------
A--------------------5-3--5-3-------
E------------------------5---12\----

E--------------------------------------------------------------------------------------
B--------------------------------------------------------------------------------------
G--b18--b18--b18--b18--b18--b18--b18--b18--b20--b20--b20--b20--b20--b20--b20--b20--b20\   play that with a wierd effect.
D--------------------------------------------------------------------------------------     
A--------------------------------------------------------------------------------------
E--------------------------------------------------------------------------------------


                               i hope its close
                                   Marshal			
Comments