Red Hot Chili Peppers - Dani California Chords & Tabs

 

Dani California Chords & Tabs

Red Hot Chili Peppers Chords & Tabs

Version: 4 Type: Tab 6 ratings
1 star 2 stars 3 stars 4 stars 5 stars
comments

Dani California Tab

   
Red Hot Chili Peppers – Dani California
by: gonza
gserradasduarte@hotmail.com

Intro and verses:
        Am                  G                  Dm                  Am
E|-------5------------------3-------------------5-------------------5---------------|
B|-------5------------------3-------------------6-------------------5---------------|
G|-------5------------------4-------------------7-------------------5---------------|
D|-------7------------------5-------------------7-------------------7---------------|
A|-------7------------------5-------------------5-------------------7---------------|
E|-------5------------------3-------------------5-------------------5---------------|

Chorus:
California rest in peace...
          F                 C              Dm
E|--------1-----------------3---------------5--------------|
B|--------1-----------------5---------------6--------------|     [ Repeat 4 times. In the last time
G|--------2-----------------5---------------7--------------|       play Dm repeteadly ]
D|--------3-----------------5---------------7--------------|
A|--------3-----------------3---------------5--------------|
E|--------1-----------------3---------------5--------------|

Bridge:
          Bm                             G              F#m
E|---------7-----------------------------3---------------2-----------------------------------------|
B|---------7-----------------------------3---------------2-----------------------------------------|
G|---------7-----------------------------4---------------2-----------------------------------------|
D|---------9-----------------------------5---------------4-----------------------------------------|
A|---------9-----------------------------5---------------4-----------------------------------------|
E|---------7-----------------------------3---------------2-----------------------------------------|

Solo:
E|----------------------------------------------------|------------------------------------------------|
B|----------------------------------------------------|------------------------------------------------|
G|----------------------------------------------------|------------------------------------------------|
D|----------------------------------------------------|------------------------------------------------|
A|----------8-----5-----------------------------------|------------8----5--------------5------------5--|
E|--5---8-------------3--3--3--3-----1---5---8---3--1-|--5-----8--------------8--8--8------5-----8-----|
[ Tab from: http://www.guitartabs.cc/tabs/r/red_hot_chili_peppers/dani_california_tab_ver_4.html ]
---------------------------------------------------------|----------------------------------------------
---------------------------------------------------------|----------------------------------------------
---------------------------------------------------------|----------------------------------------------
---------------------------------------------------------|----------------------------------------------
-------------8------5------------------------------------|----------8----5-------------5------------5---
---5----8---------------3--3--3--3-----1---5---8---3---1-|-5---8------------8--8--8--------5----8-------
[ The notes between “|” are played very quik ]
--------------------------------------------------------------------------------------------------------
--------------------------------------------------------------------------------------------------------
--------------------------------------------------------------------------------------------------------
--------------------------------------------------------------------------------------------------------
------------------------|-5-----3----0-----5----3----0----5----3----0----5----3---0---5---3---0-|-------
--------5-------8---------------------------------------------------------------------------------------

--------------------------------------------------------|-----------------------------------------------------
--------------------------------------------------------|-----------------------------------------------------
--------------------------------------------------------|-----------------------------------------------------
--------------------------------------------------------|-----------------------------------------------------
-------------8------5-----------------------------------|------------8----5----------------5----------7b---5--
---5----8---------------8--8--8----3----1---5--8--3--1--|---5---8--------------8--8--8--------5----8----------

-----------------------------------------------------------------------------------------------------------
-----------------------------------------------------------------------------------------------------------
-----------------------------------------------------------------------------------------------------------
-----------------------------------------------------------------------------7--7--7--7--7--7--7--7--7-----
--------------8----5---------------------------------------------------------------------------------------
----5----8-------------3---3---3---3----1----5----8----3----1----------------------------------------------

-----------------------------------------------------------------------------------------------|
--------------8--8--8--8--8----6--6--6--6--6---------------------------------------------------|
-5----7----------------------------------------------7-----------------------------------------|
-----------------------------------------------------------------------------------------------|
-----------------------------------------------------------------------------------------------|
-----------------------------------------------------------------------------------------------|

The music is pretty much the same as the original. The solo is a bit confusing.
To play it you must listen to the music first.
Red Hot Chili Peppers... the best band in the planet.
Gonza

Comments