Red Hot Chili Peppers - Dani California Chords & Tabs

 

Dani California Chords & Tabs

Red Hot Chili Peppers Chords & Tabs

Version: 3 Type: Tab 12 ratings
1 star 2 stars 3 stars 4 stars 5 stars
comments

Dani California Tab

Song: Dani California
Album: Stadium Arcadium (Jupiter)
Artist: Red Hot Chili Peppers
Tabbed by: Jack Walpole



Drums Intro (2 bars)

First Verse
	                            X4 (Lyrics Enter 3rd time round)
e)----5-------3---|----5-------5---
b)----5-------3---|----6-------5---
g)----5-------4---|----7-------5---
d)----------------|----------------
a)----------------|5-5-----7-7-----
e)5-5-----3-3-----|----------------
	                            X2
e)--------------------|-------------------
b)--------------------|------------5h6p5--
g)----5h7p5------5p4--|----7------------5-
d)7--7-----7--5-5---5-|---7--75-5-5-------
a)--------------------|5------------------
e)--------------------|------------------- 
	                            X2
e)----5-------3---|----5-------5---
b)----5-------3---|----6-------5---
g)----5-------4---|----7-------5---
d)----------------|----------------
a)----------------|5-5-----7-7-----
e)5-5-----3-3-----|----------------

e)--------------------|-------------------
b)--------------------|------------5h6p5--
g)----5h7p5------5p4--|----7------------5-
d)7--7-----7--5-5---5-|---7--75-5-5-------
a)--------------------|5------------------
e)--------------------|------------------- 

e)--------------------|----------------|----------------
b)--------------------|6---6--6666-6--6|666-6--6666-6666
g)----5h7p5------5p4--|7---7--7777-7--7|777-7--7777-7777
d)7--7-----7--5-5---5-|7---7--7777-7--7|777-7--7777-7777
a)--------------------|5---5--5555-5--5|555-5--5555-5555
e)--------------------|----------------|----------------
                       1   2   3   4   |etc.......

Chorus w/distorion
				    X3
e)----------------|----------------
b)----------------|----------------
g)2---2-22225-5-x5/7-777-77xx5-5-xx
d)3---3-33335-5-x5/7-777-77xx5-5-xx
a)3---3-33333-3-x3/5-555-55xx3-3-xx
e)1---1-1111------|----------------

e)----------------|----------------|------------------
b)----------------|----------------|------------------
g)2---2-22225-5-x5/7-777-77xx7-xxx7|-x7-xxx7-x7-------
d)3---3-33335-5-x5/7-777-77xx7-xxx7|-x7-xxx7-x7-------
a)3---3-33333-3-x3/5-555-55xx5-xxx5|-x5-xxx5-x5-------
e)1---1-1111------|----------------|------------x5\3/5


Interlude

e)------------------|------------------|------------------|---------17----------
b)13-------12-------|15-------17-------|13-------12-------|15-------20B---------
g)15B------14B------|17B------19B------|15B------14B------|17B------------9p7---
d)------------------|------------------|------------------|------------------10-
a)------------------|------------------|------------------|---------------------
e)------------------|------------------|------------------|---------------------

Second Verse
				    
e)----5-------3---|----5-------5---|----5-------3---|----5-------5---
b)----5-------3---|----6-------5---|----5-------3---|----6-------5---
g)----5-------4---|----7-------5---|----5-------4---|----7-------5---
d)----------------|----------------|----------------|----------------
a)0-0-------------|5-5-----7-7-----|----------------|5-5-----7-7-----
e)--------3-3-----|----------------|5-5-----3-3-----|----------------

e)--------------------|-------------------
b)--------------------|------------5h6p5--
g)----5h7p5------5p4--|----7------------5-
d)7--7-----7--5-5---5-|---7--75-5-5-------
a)--------------------|5------------------
e)--------------------|------------------- 

e)--------------------|----------------|----------------
b)--------------------|6---6--6666-6--6|666-6--6666-6666
g)----5h7p5------5p4--|7---7--7777-7--7|777-7--7777-7777
d)7--7-----7--5-5---5-|7---7--7777-7--7|777-7--7777-7777
a)--------------------|5---5--5555-5--5|555-5--5555-5555
e)--------------------|----------------|----------------
                       1   2   3   4   |etc.......

Chorus w/distortion
				    X3
e)----------------|----------------
b)----------------|----------------
g)2---2-22225-5-x5/7-777-77xx5-5-xx
d)3---3-33335-5-x5/7-777-77xx5-5-xx
a)3---3-33333-3-x3/5-555-55xx3-3-xx
e)1---1-1111------|----------------

e)----------------|----------------|----------------
b)----------------|----------------|----------------
g)2---2-22225-5-x5/7-777-77xx7-xxx7|-x7-xxx7-x7-----
d)3---3-33335-5-x5/7-777-77xx7-xxx7|-x7-xxx7-x7-----
a)3---3-33333-3-x3/5-555-55xx5-xxx5|-x5-xxx5-x5-----
e)1---1-1111------|----------------|----------------

Breakdown
				        X3	
e)----7-------7---|--------------------
b)----7-------7---|------8 -10-7-5-----
g)----7-------7---|------7 ----7---76~-
d)9-9-9-9-9-9-9-9-|------9 ------------
a)----------------|10-10-10------------
e)-------------------------------------


e)----7-------7---|----7-----------
b)----7-------7---|----7-----------
g)----7-------7---|----7-----------
d)9-9-9-9-9-9-9-9-|9-9-9-9---------
a)----------------|----------5-7---
e)-------------------------7-----5-

Third Verse
				    X2
e)----5-------3---|----5-------5---
b)----5-------3---|----6-------5---
g)----5-------4---|----7-------5---
d)----------------|----------------
a)----------------|5-5-----7-7-----
e)5-5-----3-3-----|----------------


e)--------------------|-------------------
b)--------------------|------------5h6p5--
g)----5h7p5------5p4--|----7------------5-
d)7--7-----7--5-5---5-|---7--75-5-5-------
a)--------------------|5------------------
e)--------------------|------------------- 


e)--------------------|----------------|----------------
b)--------------------|6---6--6666-6--6|666-6--6666-6666
g)----5h7p5------5p4--|7---7--7777-7--7|777-7--7777-7777
d)7--7-----7--5-5---5-|7---7--7777-7--7|777-7--7777-7777
a)--------------------|5---5--5555-5--5|555-5--5555-5555
e)--------------------|----------------|----------------
                       1   2   3   4   |etc.......
[ Tab from: http://www.guitartabs.cc/tabs/r/red_hot_chili_peppers/dani_california_tab_ver_3.html ]
e)---------------|--------------
b)5---5--55-5-555|5---5--55-5---
g)7---7--77-7-777|7---7--77-7---
d)6---6--66-6-666|6---6--66-6---
a)7---7--77-7-777|7---7--77-7---
e)---------------|--------------


Chorus w/distortion
				    X3
e)----------------|----------------
b)----------------|----------------
g)2---2-22225-5-x5/7-777-77xx5-5-xx
d)3---3-33335-5-x5/7-777-77xx5-5-xx
a)3---3-33333-3-x3/5-555-55xx3-3-xx
e)1---1-1111------|----------------

e)----------------|----------------|----------------
b)----------------|----------------|----------------
g)2---2-22225-5-x5/7-777-77xx7-xxx7|-x7-xxx7-x7-----
d)3---3-33335-5-x5/7-777-77xx7-xxx7|-x7-xxx7-x7-----
a)3---3-33333-3-x3/5-555-55xx5-xxx5|-x5-xxx5-x5-----
e)1---1-1111------|----------------|----------------

				    X3
e)----------------|----------------
b)----------------|----------------
g)2---2-22225-5-x5/7-777-77xx5-5-xx
d)3---3-33335-5-x5/7-777-77xx5-5-xx
a)3---3-33333-3-x3/5-555-55xx3-3-xx
e)1---1-1111------|----------------

e)----------------|----------------|----------------
b)----------------|----------------|----------------
g)2---2-22225-5-x5/7-777-77xx7-xxx7|-x7-xxx7-x7-----
d)3---3-33335-5-x5/7-777-77xx7-xxx7|-x7-xxx7-x7-----
a)3---3-33333-3-x3/5-555-55xx5-xxx5|-x5-xxx5-x5-----
e)1---1-1111------|----------------|----------------


Guitar Solo w/distortion

e)-------------------------------|--------------------|--------------------------|-----------------
b)------10-----------------------|--------------------|------10------------------|-------13-15~----
g)------10-----------------------|--------------------|------10------------------|----/14----------
d)---10----12~-------------------|--------------------|---10----12~---10--10--10-|12---------------
a)12-----------12p10p8-10p8-10p8-|10p8----5-------5---/12----------/12--12--12---|-----------------
e)-------------------------------|----10----3p1h3-----|--------------------------|-----------------

e)------------------------------|--------------------|--------------------------|---------------------
b)-------10---------------------|--------------------|------10------------------|-------13-15~-----13-
g)-------10---------------------|--------------------|------10------------------|----/14---------14---
d)---10-----12~-----------------|--------------------|---10----12~---10--10--10-|12-------------------
a)12-----------12p10p8-10p8-10--|10p8----5-------5---/12----------/12--12--12---|---------------------
e)------------------------------|----10----3p1h3-----|--------------------------|---------------------

e)------------------------------------------------|---------------------------|------------------------
b)15-13----15-13----15-13----15-13----15-13-------|------10-------------------|------------------------
g)------14-------14-------14-------14-------14----|------10-------------------|------------------------
d)------------------------------------------------|---10----12~----10--10--10-|------------10----------
a)------------------------------------------------|12------------12--12--12---|10-8-----/12---\10-8----
e)------------------------------------------------|---------------------------|-----10--------------10-

e)-------------------------------|-----------------------------|-------------------------------
b)--------10---------------------|------------13--15Br(15)-----|------10-----------------------
g)--------10---------------------|----------14-----------------|------10-----------------------
d)----10------12~----10--10--10--|12Br(12)---------------------|---10----12~-------------------
a)12---------------12--12--------|-----------------------------|12------------12p10p8-10p8 10--
e)-------------------------------|-----------------------------|-------------------------------

                               push wah toe down gradually
e)----------------------------|-----------------------------------------------------
b)----------------------------|10-13p10-10-10-13-10-13p10-10-10-13------------------
g)----------------------------|------------------------------------12Br(12)p10-12-10
d)--------------------5-------|-----------------------------------------------------
a)10p8----------3p1-3---------|-----------------------------------------------------
e)----10------5---------------|-----------------------------------------------------


e)--------------------------------------10----10-|13B(15)(15)(15)(15)13B(15)(15)(15)(15)13-10-13----10-13
b)---10-13-13p10----10------10-13-10-13----13----|-----------------------------------------------13------
g)12B------------12----12B-----------------------|-------------------------------------------------------
d)-----------------------------------------------|-------------------------------------------------------
a)-----------------------------------------------|-------------------------------------------------------
e)-----------------------------------------------|-------------------------------------------------------

                                                                  Whammy bar scoops........ and fade
e)---------------------------------------------10-|--------------------------------------------
b)---------------10-13----10-13----10-13----10----|--------------------------------------------
g)12Br(12)p10-12-------12-------12-------12-------|12Br(12)p10---------------------------------
d)------------------------------------------------|--------------12~---------------------------
a)------------------------------------------------|--------------------------------------------
e)------------------------------------------------|--------------------------------------------


END

Legend:

h hammer on
p pull off
B full bend
Br full bend and release
/ slide up neck
\ slide down neck
~ Vibrato
x mute string with fretting hand
Comments