Red Hot Chili Peppers - Dani California Correct Chords & Tabs

 

Dani California Correct Chords & Tabs

Red Hot Chili Peppers Chords & Tabs

Version: 1 Type: Tab 5 ratings
1 star 2 stars 3 stars 4 stars 5 stars
comments

Dani California Correct Tab

   
Song:Dani California
Band:Red Hot Chili Peppers
Tuning:E A D G B E (Standard)
Pickup:Neck
Sounds:Clean w/reverb, Distortion, Light Distortion w/Wah, Distortion w/Wah
Tabber:Jeff

Intro    (Clean w/reverb)
|--------5----------3----------5---------5-|----------------------------------------------------|
|--------5----------3----------6---------5-|---------------------------------6h8p6--------------|
|--------5----------4----------7---------5-|-----5h7p5---------4h5p4-----7-x------7------5h7p5--|
|--------7----------5----------7---------7-|-7-x-------7-x-5-x-------5-x------------x-7-x-----7-|
|-----------x----------x--5--5----x--------|----------------------------------------------------|
|---5--5-------3--3------------------5-5---|----------------------------------------------------|
Repeat this 4 times for intro.               Play this twice.



Riff 1                                      Riff 2
|--------5----------3----------5---------5-|----------------------------------------------------|
|--------5----------3----------6---------5-|---------------------------------6h8p6--------------|
|--------5----------4----------7---------5-|-----5h7p5---------4h5p4-----7-x------7------5h7p5--|
|--------7----------5----------7---------7-|-7-x-------7-x-5-x-------5-x------------x-7-x-----7-|
|-----------x----------x--5--5----x--------|----------------------------------------------------|
|---5--5-------3--3------------------5-5---|----------------------------------------------------|
Repeat this twice.                           Play this once.

|------------------------------5-------------|
|------------------------------6-------------|
|-----5h7p5---------4h5p4------7--10times----|
|-7-x-------7-x-5-x-------5-x--7-------------|
|------------------------------5-------------|
|------------------------------x-------------|
The second time you play riff 2 play this.




Chorus  (Distortion)
|-------------------------------|---------------------------------|
|-------------------------------|---------------------------------|
|--------5-5x-5/7-7-7-7x--------|------5-5x-5/7-7-7-7x7x-7x-7x7-7-|
|-3-3-3x-5-5x-5/7-7-7-7x-5-5x---|-3-3x-5-5x-5/7-7-7-7x7x-7x-7x7-7-|
|-3-3-3x-3-3x-3/5-5-5-5x-5-5x---|-3-3x-3-3x-3/5-5-5-5x5x-5x-5x5-5-|
|-1-1-1x-----------------3-3x---|-1-1x----------------------------|
Play this 3 times.               Play once.




Mini-Solo    (Light Distortion w/Wah)
|-8--7--10--12--8--7--10--17---|
|------------------------------|
|-9--7--10--14--9--7--10--14---|
|------------------------------|
|------------------------------|
|------------------------------|


Riff 1                                      Riff 2
|--------5----------3----------5---------5-|----------------------------------------------------|
|--------5----------3----------6---------5-|---------------------------------6h8p6--------------|
|--------5----------4----------7---------5-|-----5h7p5---------4h5p4-----7-x------7------5h7p5--|
|--------7----------5----------7---------7-|-7-x-------7-x-5-x-------5-x------------x-7-x-----7-|
|-----------x----------x--5--5----x--------|----------------------------------------------------|
|---5--5-------3--3------------------5-5---|----------------------------------------------------|
Repeat this twice.                           Play this once.

|-----------------------------5-------------|
|-----------------------------6-------------|
|-----5h7p5---------4h5p4-----7--10times----|
|-7-x-------7-x-5-x-------5-x-7-------------|
|-----------------------------5-------------|
|-----------------------------x-------------|
The second time you play riff 2 play this.



Chorus  (Distortion)
|-------------------------------|---------------------------------|
|-------------------------------|---------------------------------|
|--------5-5x-5/7-7-7-7x--------|------5-5x-5/7-7-7-7x7x-7x-7x7-7-|
|-3-3-3x-5-5x-5/7-7-7-7x-5-5x---|-3-3x-5-5x-5/7-7-7-7x7x-7x-7x7-7-|
|-3-3-3x-3-3x-3/5-5-5-5x-5-5x---|-3-3x-3-3x-3/5-5-5-5x5x-5x-5x5-5-|
|-1-1-1x-----------------3-3x---|-1-1x----------------------------|
Play this 3 times.               Play once.



Bridge (Clean w/reverb)
|----7------7------5------5-5------------------|----7-----7-----7----------|
|----8------8------6------6-5------------------|----8-----8-----8----------|
|----9-x----9-x----7-x----7-5------------------|----9x----9x----9x---------|
|------x------x------x-------------------------|-----x-----x-----x---------|
|------x------x------x-------------------------|-----x-----x-----x----7----|
|-7-7----7-7----5-5----5-5---------------------|-7-7---7-7---7-7---7-9-9\0-|
Play this 3 times.                              Play this once.



[ Tab from: http://www.guitartabs.cc/tabs/r/red_hot_chili_peppers/dani_california_correct_tab.html ]
Riff 1                                      Riff 2
|--------5----------3----------5---------5-|----------------------------------------------------|
|--------5----------3----------6---------5-|---------------------------------6h8p6--------------|
|--------5----------4----------7---------5-|-----5h7p5---------4h5p4-----7-x------7------5h7p5--|
|--------7----------5----------7---------7-|-7-x-------7-x-5-x-------5-x------------x-7-x-----7-|
|-----------x----------x--5--5----x--------|----------------------------------------------------|
|---5--5-------3--3------------------5-5---|----------------------------------------------------|
Repeat this twice.                           Play this once.

|-----------------------------5-------------|---7---|
|-----------------------------6-------------|---8---|
|-----5h7p5---------4h5p4-----7--10times----|---9---|
|-7-x-------7-x-5-x-------5-x-7-------------|---9---|
|-----------------------------5-------------|---7---|
|-----------------------------x-------------|---x---|
The second time you play riff 2 play this.    Then play this 10 times.



Chorus  (Distortion)
|-------------------------------|---------------------------------|
|-------------------------------|---------------------------------|
|--------5-5x-5/7-7-7-7x--------|------5-5x-5/7-7-7-7x7x-7x-7x7-7-|
|-3-3-3x-5-5x-5/7-7-7-7x-5-5x---|-3-3x-5-5x-5/7-7-7-7x7x-7x-7x7-7-|
|-3-3-3x-3-3x-3/5-5-5-5x-5-5x---|-3-3x-3-3x-3/5-5-5-5x5x-5x-5x5-5-|
|-1-1-1x-----------------3-3x---|-1-1x----------------------------|
Play this 3 times.               Play once.





Solo (Distortion   Wah off)
|-------------------------------------------------------------------------------------------------|
|------------------------------------------------------------------------------------------13-15v-|
|-------7vvv---------------------------------------------7vvvv--------------------------/14-------|
|----10-----x-----------------------------------------10------x-10p8-10p8-10p8-10-12vvv-----------|
|-/12---------10p8-10p8-10p8-10p8---------1-1-3/5--/12--------------------------------------------|
|---------------------------------10--/5----------------------------------------------------------|

|-------------------------------------------------------------------------------------------------|
|------------------------------------------------------------------------------------------13-15v-|
|-------7vvv---------------------------------------------7vvvv--------------------------/14-------|
|----10-----x-----------------------------------------10------x-10p8-10p8-10p8-10-12vvv-----------|
|-/12---------10p8-10p8-10p8-10p8---------1-1-3/5--/12--------------------------------------------|
|---------------------------------10--/5----------------------------------------------------------|

|---------------------------------------------------|
|----13---15-13----15-13---15-13---15-13------------|
|-/14--14------14-------14------14------14\---------|
|---------------------------------------------------|
|---------------------------------------------------|
|---------------------------------------------------|

|------------------------------------------------------------------------------------------------|
|-----------------------------------------------------------------------------------------13-15br|
|-------7vvv---------------------------------------------7vvvv-------------------------/14-------|
|----10-----x-----------------------------10----------10------x-10p8-10p8-10p8-10-12br-----------|
|-/12---------10p8-10p8-10p8-10p8----10/12--10\8---/12-------------------------------------------|
|---------------------------------10------------10-----------------------------------------------|
                                              
                                                    (Wah on)
|-------------------------------------------------|-----------------------------------------------|
|-------------------------------------------------|----10-13p10-----10-13p10-----10-13p10---------|
|-------7vvv--------------------------------------|-12b---------12b----------12b------------------|
|----10-----x-------------------------------------|-----------------------------------------------|
|-/12---------10p8-10p8-10p8-10p8---------1-1-3/5-|-----------------------------------------------|
|---------------------------------10--/5----------|-----------------------------------------------|
                                                    Really fast and about 3 times.

|------13-15p13-13-13-15p13-13-13-15p13-13-13-15p13-13-13-15p13-13-13-15p13-13-|
|-13/15------------------------------------------------------------------------|
|------------------------------------------------------------------------------|
|------------------------------------------------------------------------------|
|------------------------------------------------------------------------------|
|------------------------------------------------------------------------------|

|-10-13p10---10---------------------------------------------------------|
|----------13---13p10----13---------------------------------------------|
|---------------------12b--12rp10--10-12brp10---------------------------|
|--------------------------------12-----------12vvv--(12)#-(12)#--(12)\-|
|-----------------------------------------------------------------------|
|-----------------------------------------------------------------------|


Yeah, this should be 100% correct. Spent about 3 hours tabbing this out. Hope someone
uses it. Comments or revisions can be sent to guitarguru160@yahoo.com or below in 
comments box. Thanks!

Jeff





Tab Notation:
Bend= B
Release= r
Hammer= h
Pulloff= p
Vibrato= v
Muted note= x
Slide up= /
Slide down= \
Tremolo bend= #
Ringing note= (12)
Comments