Red Hot Chili Peppers - Dani California Chords & Tabs

 

Dani California Chords & Tabs

Red Hot Chili Peppers Chords & Tabs

Version: 1 Type: Bass Tab 7 ratings
1 star 2 stars 3 stars 4 stars 5 stars
comments

Dani California Bass Tab

Title: "Dani California"
Artist: Red Hot Chili Peppers
Album: Stadium Arcadium

Standard E A D G Tuning. These are pretty simple tabs. 

VERSE I
(===============================================9x's=============================================)
G|-----------------------7-----------------------------------------------------------------------|
D|-------7-------5-3---------5/7-5---------------------------------------------------------------|
A|-------------------5-5---5-------7-5-----------------------------------------------------------|
E|-3/5-5---5/3-3---------------------------------------------------------------------------------|

G|-----------------------------------------------------------------------------------------------|
D|-------7--------5-3----------------------------------------------------------------------------|
A|------------------------5--5--5--5--5--5-------------------------------------------------------|
E|---5-5----5/3-3--------------------------------------------------------------------------------|
[ Tab from: http://www.guitartabs.cc/tabs/r/red_hot_chili_peppers/dani_california_btab.html ]
CHORUS I
(===============================================3x's=============================================)
G|-----------------------------------------------------------------------------------------------|
D|-----------------------------------------------------------------------------------------------|
A|-------3-3-3-3/0-5-5-5-------------------------------------------------------------------------|
E|-1-1-1-----------------3-3-3-3/0---------------------------------------------------------------|

G|-----------------------------------------------------------------------------------------------|
D|-----------------------------------------------------------------------------------------------|
A|-------3-3-3-3/0-5-5-X-5-5-5-X-5-5-5-X-5-5-5---------------------------------------------------|
E|-1-1-1-----------------------------------------------------------------------------------------|

VERSE I, II, and III are all the same.
CHORUS I, II, and III are all the same.
The BRIDGE is all improvisation.
The OUTRO is also improvisation.

Once again. This is a very plain and basic tablature. Don't hate me if it's not perfect. It's the
best I could do. 

RED HOT CHILI PEPPERS ROCK!!!!!!			
Comments