Red Hot Chili Peppers - Coffee Shop Chords & Tabs

 

Coffee Shop Chords & Tabs

Red Hot Chili Peppers Chords & Tabs

Version: 2 Type: Tab 0 ratings
1 star 2 stars 3 stars 4 stars 5 stars
comments

Coffee Shop Tab

                 Coffee Shop - The Red Hot Chili Peppers


Theme :

1st guitar :
E-|---------------------------------------------------------------------|
B-|---------------------------------------------------------------------|
G-|---------------------------------------------------------------------|
D-|-2--x--x--x--x--2--x--x--x--x--2--2--2--x--x--x--x--2--x--x--x--2--2-|
A-|-2--x--x--x--x--2--x--x--x--x--2--2--2--x--x--x--x--2--x--x--x--2--2-|
E-|-0--x--x--x--x--0--x--x--x--x--0--0--0--x--x--x--x--0--x--x--x--0--0-|


2nd guitar :
E-|----------------------------------------------------------xxxx//12-12|
B-|----------------------------------------------------------xxxx//12-12|
G-|-------------------------------4--3~~~~~~~~~~~~~~~~~~~~~~~xxxx//12-12|
D-|---------------------------------------------------------------------|
A-|---------------------------------------------------------------------|
E-|---------------------------------------------------------------------|

I am just a lousy bum
Searching for the unknow crumb, the crumb, the crumb
Something of someone to come
Come along illumate my lust, combust
Confucing might have been confused
And buddha might have blown a face, booze the muse

[ Tab from: http://www.guitartabs.cc/tabs/r/red_hot_chili_peppers/coffee_shop_tab_ver_2.html ]
Chorus :
E-|---------------------------------------------------------------------------|
B-|---------------------------------------------------------------------------|
G-|---------------------------------------------------------------------------|
D-|---------------------------------------------------------------------------|
A-|-7----7----5-----5-----2----------2-------------2----------2---------------|
E-|-5----5----3-----3-----0----------0-------------0----------0---------------|
    Meet me   at    the       Coffee shop

    Where we  can dance like Iggy Pop

E-|---------------------------------------------------------------------------|
B-|---------------------------------------------------------------------------|
G-|---------------------------------------------------------------------------|
D-|---------------------------------------------------------------------------|
A-|-7--7--7-7-5----5---4----------------------------5----4-------4--4---------|
E-|-5--5--5-5-3----3---2----------------------------3----2-------2--2---------|
      Another go   in  the    porking  lot
Frewak the    


E-|--------------------------------------|
B-|--------------------------------------|
G-|--------------------------------------|
D-|-5------5---------9----10---12----14\-|
A-|-3------3---7-------------------------|
E-|------------5-----7----8----10----12\-|
    cheek  on  your  hotspo-ot



Comments