Red Hot Chili Peppers - Cant Stop Chords & Tabs

 

Cant Stop Chords & Tabs

Red Hot Chili Peppers Chords & Tabs

Version: 8 Type: Tab 0 ratings
1 star 2 stars 3 stars 4 stars 5 stars
comments

Cant Stop Tab

   
ARTIST:Red Hot Chili Peppers
 SONG:Cant stop
 ALBUM:By The Way (What a album)
 TABBED: greenday_rhcp2002@yahoo.co.uk
 

 Intro
e|----------------------|
B|----------------------|
G|----------------------|
D|----------------------|
A|--5-7-5-7-5-7-5-7-5-7-| Just repeat
E|----------------------|


 Main/kick ass riff how i play it   REPEAT x5
e|-----------------------------------------------------------|
B|-----------------------------------------------------------|
G|----79-----79-----79---------79-----79-----79-----79----79-|
D|----------------0------000---------------------------------|
A|-77----777-----7----------------5--------------------------|
E|---------------------------------7-----777----778----888---|


 Little guitar part before Chorus
e|--------|
B|-888888-|
G|--------| Played by 2nd guitar
D|--------|
A|--------|
E|--------|

 Chorus x 2
e|-------|-------|-------|----------|
B|-8-8-8-|-7-7-7-|-------|----------|
G|-9-9-9-|-7-7-7-|-7-7-7-|-9--9--9--|  ^=STANDS 4 UP STROKE
D|-9-9-9-|-7-7-7-|-9-9-9-|-10-10-10-|    REST ARE DOWNSTROKES
A|-7-7-7-|-5-5-5-|-9-9-9-|-10-10-10-|
E|-------|-------|-7-7-7-|-8--8--8--| 
     ^       ^       ^        ^ 
THEN DO THIS

 MAIN RIFF x 4


 GUITAR 2 PLAYS RIFF SAME AGAIN


 CHORUS x 2


[ Tab from: http://www.guitartabs.cc/tabs/r/red_hot_chili_peppers/cant_stop_tab_ver_8.html ]
 Inturlude X2
e|-12-12-12-12--7-7-7-7--9-9-9-9--8-8-8-8-|
B|-12-12-12-12--7-7-7-7--9-9-9-9--8-8-8-8-|
G|-12-12-12-12-----------9-9-9-9--9-9-9-9-|
D|----------------------------------------|
A|----------------------------------------|
E|----------------------------------------|

 Inturlude Part 2  x2
e|-12-12-12-12--10-10-10-10--7-7-7-7------------|
B|-12-12-12-12--10-10-10-10--7-7-7-7--8-8-8-8-8-|
G|-12-12-12-12----------------------------------|
D|----------------------------------------------|
A|----------------------------------------------|
E|----------------------------------------------|


 Solo x1
e|--12--12--10--10----------------12--15--12--12--10--10--------------|
B|-------------------12--12--8--8-------------------------12--12--8--8|
G|--------------------------------------------------------------------|
D|--------------------------------------------------------------------|
A|--------------------------------------------------------------------|
E|--------------------------------------------------------------------|

 MAIN RIFF x4

 END

  
 Notes: I know the intulude and solo isn't perfect but they are close
        to right. Listen to cd for strumming and ring out of notes
        not hard to figure out.
        IF YOU DON'T HAVE BY THE WAY ALREADY GO AND BUY IT NOW!!!
        ANY comments send to email:greenday_rhcp2002@yahoo.co.uk
Comments