Red Hot Chili Peppers - Cant Stop Chords & Tabs

 

Cant Stop Chords & Tabs

Red Hot Chili Peppers Chords & Tabs

Version: 6 Type: Tab 0 ratings
1 star 2 stars 3 stars 4 stars 5 stars
comments

Cant Stop Tab

here is cant stop. one the best songs on thier new album. well, in my opinion it is.


e----------------------
b----------------------
g----------------------     x 4
d--0h2-0h2-0h2-0h2-----
a----------------------
e----------------------

e----------------------
b----------------------
g----------------------     x 1
d--0h2-0h2-0h2-0---0h2-
a---------------0h2----
e----------------------

e----------------------
b----------------------
g----------------------     x 3
d--0h2-0h2-0h2-0h2-----
a----------------------
e----------------------


e------------------------------------------------------------
b-----3-5-------3-5---------3-5-------3-5--------------------
g------------------------------------------------------------
d-2-2-----2-2-2-----2-2-2-0-----0-0-0------------------------
a------------------------------------------------------------
e------------------------------------------------------------

e------------------------------------------------------------
b---------3-5-------3-5---------3-5-------3-5----------------
g------------------------------------------------------------
d-0-0-0--------------------------------------------2---------
a-------2-----2-2-2-----2-2-2-3-----3-3-3-----3-3-3----------
e------------------------------------------------------------
this is the intro one, where its only the gutiar playing. a drum role comes 
in on the last note then you play this 3 times. 

e------------------------------------------------------------
b--3-5-------3-5---------3-5-------3-5-----------------------
g------------------------------------------------------------
d------2-2-2-----2-2-2-0-----0-0-0---------------------------
a------------------------------------------------------------
e------------------------------------------------------------

e------------------------------------------------------------
b---------3-5-------3-5---------3-5-------3-5----------------
g------------------------------------------------------------
d-0-0-0--------------------------------------------2---------
a-------2-----2-2-2-----2-2-2-3-----3-3-3-----3-3-3----------
e------------------------------------------------------------

on the forth it changes a bit
e------------------------------------------------------------
b--3-5-------3-5---------3-5-------3-5-----------------------
g------------------------------------------------------------
d------2-2-2-----2-2-2-0-----0-0-0---------------------------
a------------------------------------------------------------
e------------------------------------------------------------

e---------------------------------------------------------------
b---------3-5-------3-5---12-12--12-12-12-12--12-12--12-12-12-12
g-----------------------16-----14-----------11-----12-----------
d-0-0-0---------------------------------------------------------
a-------2-----2-2-2---------------------------------------------
e---------------------------------------------------------------
(i dont think that last part of the forth bit is right. so if anyone can 
correct me so i can alter it, please do.)
then theres the chorus.
[ Tab from: http://www.guitartabs.cc/tabs/r/red_hot_chili_peppers/cant_stop_tab_ver_6.html ]
e-7-----7--7--------------
b-8--7--7--8--------------
g-7--7--9--9--------------
d----7--9--10-------------
a-------------------------
e-------------------------
strum these chords

second verse
e------------------------------------------------------------
b-----3-5-------3-5---------3-5-------3-5--------------------
g------------------------------------------------------------
d-2-2-----2-2-2-----2-2-2-0-----0-0-0------------------------
a------------------------------------------------------------
e------------------------------------------------------------

e------------------------------------------------------------
b---------3-5-------3-5---------3-5-------3-5----------------
g------------------------------------------------------------
d-0-0-0--------------------------------------------2--------- x 3
a-------2-----2-2-2-----2-2-2-3-----3-3-3-----3-3-3----------
e------------------------------------------------------------

then
e------------------------------------------------------------
b--3-5-------3-5---------3-5-------3-5-----------------------
g------------------------------------------------------------
d------2-2-2-----2-2-2-0-----0-0-0---------------------------
a------------------------------------------------------------
e------------------------------------------------------------

e---------------------------------------------------------------
b---------3-5-------3-5---12-12--12-12-12-12--12-12--12-12-12-12
g-----------------------16-----14-----------11-----12-----------
d-0-0-0---------------------------------------------------------
a-------2-----2-2-2---------------------------------------------
e---------------------------------------------------------------

then chorus

e-7-----7--7--------------
b-8--7--7--8--------------
g-7--7--9--9--------------
d----7--9--10-------------
a-------------------------
e-------------------------
strum these chords


then bridge/interlude type thing

(so far i havent got a clue!!!!!)


then a little solo

e-12-12/10-10-7-7-3---12-14-10-12-7-10-5-3-------
b------------------------------------------------
g------------------------------------------------
d------------------------------------------------
a------------------------------------------------
e------------------------------------------------


then start this again

e------------------------------------------------------------
b-----3-5-------3-5---------3-5-------3-5--------------------
g------------------------------------------------------------
d-2-2-----2-2-2-----2-2-2-0-----0-0-0------------------------
a------------------------------------------------------------
e------------------------------------------------------------

e------------------------------------------------------------
b---------3-5-------3-5---------3-5-------3-5----------------
g------------------------------------------------------------
d-0-0-0--------------------------------------------2--------- x4
a-------2-----2-2-2-----2-2-2-3-----3-3-3-----3-3-3----------
e------------------------------------------------------------
doing it four times.

and that is the whole song. sorry i cant figure out the bridge/interlude thingy. 
please please please. if any one knows it, correct me, or email it to me at 
agonoarea@hotmail.com.

by jackson wise
Comments