Red Hot Chili Peppers - Cant Stop Chords & Tabs

 

Cant Stop Chords & Tabs

Red Hot Chili Peppers Chords & Tabs

Version: 5 Type: Tab 0 ratings
1 star 2 stars 3 stars 4 stars 5 stars
comments

Cant Stop Tab

   
-------------------------------------------------------------------------------
			     Can't Stop - Red Hot Chili Peppers
-------------------------------------------------------------------------------

By:red hot chili peppers
album: by the way

best song on the new album

intro:
e|----------------------------|
B|----------------------------|
G|----------------------------|
D|----------------------------|
A|5--7--5--7--5--7--5--7--5--7|
E|----------------------------|

  play this 8 times total...but on the 5th time he alters it by going...

e|----------------------------|
B|----------------------------|
G|----------------------------|
D|----------------------------|
A|5--7--5--7--5--7p5-----5--7-|
E|--------------------7-------|
[ Tab from: http://www.guitartabs.cc/tabs/r/red_hot_chili_peppers/cant_stop_tab_ver_5.html ]
verse:  
e|----------------------------------------------------------------------|
B|----------------------------------------------------------------------|
G|------7--9-----------7--9--------------7--9-----------7--9------------|
D|----------------------------------------------------------------------|
A|7--7--------7--7--7--------7--7--7--5--------5--5--5--------5--5--5---|
E|---------------------------------------------------------------------8|

e|----------------------------------------------------------------|
B|----------------------------------------------------------------|
G|7--9-----------7--9--------------7--9-----------7--9------------|
D|----------------------------------------------------------------|
A|------------------------------5--------5--5--5--------5--5--5--7|
E|------8--8--8--------8--8--8------------------------------------|

chorus:
  Em   D    Bm   C
e|7----5----7----8-|
B|8----7----7----8-|
G|9----7----7----9-|
D|9----7----9----10|
A|7----5----9----10|
E|----------7----8-|

plays the same chords through the reggae part. after the reggae part the solo is

solo:
e|12--12--10--10--7--7-----12--14/10--12/7--10---------|
B|----------------------8-----------------------8/10--8|
G|-----------------------------------------------------|
D|-----------------------------------------------------|
A|-----------------------------------------------------|
E|-----------------------------------------------------|

then it goes back to the verse.
Comments