Red Hot Chili Peppers - Cant Stop Chords & Tabs

 

Cant Stop Chords & Tabs

Red Hot Chili Peppers Chords & Tabs

Version: 1 Type: Tab 10 ratings
1 star 2 stars 3 stars 4 stars 5 stars
comments

Cant Stop Tab

Can't Stop _ The REDHOTCHILI PEPPERS.
This is the way I play it.
[ Tab from: http://www.guitartabs.cc/tabs/r/red_hot_chili_peppers/cant_stop_tab.html ]
*Note : no proper timing is used, this is a rough tab.
Intro:
---------------------
---------------------
---------------------
---------------------
-5-7-5-7-5-7-5-7-5-7-
---------------------
Verse:
-----------------------------------------------------------------
-----------------------------------------------------------------
---7-9-----7-9-----7-9-----7-9-----7-9-----7-9-----7-9-----7-9---
-----------------------------------------------------------------
-7-----777-----7-5-----555-----5-3-----333-----3-5-----555-----5-
-----------------------------------------------------------------
Chorus:
Use these chords.
---------|-----------
---------|-----------
-9-7-4-5-|---7-4-5---
-9-7-4-5-|-5-7-4-5---
-7-5-2-3-|-5-5-2-3---
---------|-3---------

BRIDGE:
Use these chords
x7x5x2x3x
x7x5x2x3x
x9x7x4x5x
x9x7x4x5x
x7x5x2x3x
---------

GUITAR FILL:
-12~12b(15)b12--------------------------------
---------------15~15b(17)b15-12~12b(14)b12----
-------------------------------------------12-
----------------------------------------------
----------------------------------------------
----------------------------------------------
James Elliot
j_elliot@mynetaddress.com
Comments