Red Hot Chili Peppers - Cant Stop Chords & Tabs

 

Cant Stop Chords & Tabs

Red Hot Chili Peppers Chords & Tabs

Version: 3 Type: Bass Tab 0 ratings
1 star 2 stars 3 stars 4 stars 5 stars
comments

Cant Stop Bass Tab

============================================================================
                   Red Hot Chili Peppers - Cant Stop
============================================================================

tabbed by: Louis
Album: By the Way

Intro:

g--------------------------------------------------------------------
d---------------------------------------------------Guitar-Intro-----
a--------------------------------------------------------------------
e-0-0-0-0-0-0-0-0-0-0-0-0-0-0-0-0-0-0-0-0-0-0-0-0--------------------

Verse: 

g----7-9-------7---9--------7--9---------7----9-----
d*---------------0--------------------------0-------
a*-7-----7---x--------7--5--------7----x---------7--
e----------0-------------------------0--------------
   T P P T T T P T P  T  T  P  P  T  T T P  T P  T
g---4-4------4---4---------5-5--------5---5------ [ Tab from: http://www.guitartabs.cc/tabs/r/red_hot_chili_peppers/cant_stop_btab_ver_3.html ]
          Harmonics.    .
g|-----9------|----7----7------|-----4---4-------|-----7h5----------|
d|------------|----------------|-----------------|------------------|
a|-7-----7----|-------5--------|-------2---2-----|------------3-----|
e|---0--------|----------------|-----------------|------------------|

          Harmonics.    .
g|-----9------|----7----7------|-----4---4-------|-----7h5----------|
d|------------|----------------|-----------------|------------------|
a|-7-----7----|-------5--------|-------2---2-----|----------3---4-5-|
e|---0--------|----------------|-----------------|------------------|

          Harmonics.    .
g|-----9------|----7----7------|-----4---4-------|-----7h5----------|
d|------------|----------------|-----------------|------------------|
a|-7-----7----|-------5--------|-------2---2-----|---------3-3h5-1h3|
e|---0--------|----------------|-----------------|------------------|

          Harmonics.    .
g|-----9------|----7----7------|-----4---4-------|-----7h5----------|
d|------------|----------------|-----------------|------------------|
a|-7-----7----|-------5--------|-------2---2-----|------------3-----|
e|---0--------|----------------|-----------------|------------------|

Guitar Solo:

g----7-9-------7---9--------7--9---------7----9-----
d*---------------0--------------------------0-------
a*-7-----7---x--------7--5--------7--x-----------7--
e----------0---------------------------0------------
   T P P T T T P T P  T  T  P  P  T  T T P  T P  T

g---4-4-------4---4-------5-5----------3--------------
d----------------------------------3h5-----3h5--------
a-2------2-2----x-----3--------3h5--------------3h5---
e-----------------------------------------------------
  T P P  T T  P T P   T   P P

Verse:

g----7-9-------7---9--------7--9---------7----9-----
d*---------------0--------------------------0-------
a*-7-----7---x--------7--5--------7--x-----------7--
e----------0---------------------------0------------
   T P P T T T P T P  T  T  P  P  T  T T P  T P  T
g---4-4------4---4---------5-5--------5---5------ 
d------------------------------------------------*
a-2-----2-2----x-----2--3--------3-3----x-----3--*
e------------------------------------------------ 
  T P P T T  P T P   T  T  P P   T T  P T P   T          
                                                
Please rate this
Comments