Red Hot Chili Peppers - Californication Chords & Tabs

 

Californication Chords & Tabs

Red Hot Chili Peppers Chords & Tabs

Version: 8 Type: Tab 0 ratings
1 star 2 stars 3 stars 4 stars 5 stars
comments

Californication Tab

This is the original solo. it seems like john is improvising
the solo on every concert, but this is the 100% correct solo 
from the record...

tabbed by karl henrik lonningdal from Norway
originally tabbed by john frusciante of the
Red Hot Chili Peppers.

great.

e|----9------------------9-----------------------------|
B|-10-----------------10-----------------7-7-5--7p5----|
G|-------11b12r=11-----------11b12r=11--------------6-6|
D|-----------------------------------------------------|
A|-----------------------------------------------------|
E|-----------------------------------------------------|

e|-----------------------------9--12--14--|
B|-----5--7b8.5r=7--5-------10------------|
G|-4-6----------------6-------------------|
D|----------------------------------------|
A|----------------------------------------|
E|----------------------------------------|
[ Tab from: http://www.guitartabs.cc/tabs/r/red_hot_chili_peppers/californication_tab_ver_8.html ]
e|----9--12--14b16r==14-----17-16-14----14|
B|--10-------------------------------17---|
G|----------------------------------------|
D|----------------------------------------|
A|----------------------------------------|
E|----------------------------------------|

e|-------------------------------------------------|
B|-17-14-17---14---14---------14---------14--------|
G|-----------------16b17.5====16b17.5====16b17.5===|
D|-------------------------------------------------|
A|-------------------------------------------------|
E|-------------------------------------------------|
                                                 
e|-12-----------------------------------------------------|
B|-----14-19b20r==19--17-----17--------------17--15--14---|
G|-----------------------18------18--16--14-------------14|
D|--------------------------------------------------------|
A|--------------------------------------------------------|
E|--------------------------------------------------------|

not so hard, is it?? 

mail me at kalleballe@c2i.net IF THERE IS SOMEHING...
Comments