Red Hot Chili Peppers - Californication Chords & Tabs

 

Californication Chords & Tabs

Red Hot Chili Peppers Chords & Tabs

Version: 7 Type: Tab 0 ratings
1 star 2 stars 3 stars 4 stars 5 stars
comments

Californication Tab

A little bit i made up myself, but there is about 95 % right!

Enjoy...

Any comments or questions can be send to "eraser49@hotmail.com"

E----------------9----------------------------------9--------------------------------------------
B---------10--------------------------------10--------------------------------------------------
G--------------------------11b--11---------------------11b-----11--11--11--11---9-----------
D----------------------------------------------------------------------------------------11--11-
A------------------------------------------------------------------------------------------------
E------------------------------------------------------------------------------------------------
[ Tab from: http://www.guitartabs.cc/tabs/r/red_hot_chili_peppers/californication_tab_ver_7.html ]
E----------------------------------------------------------9------12----14---------9--12-------
B---------------------9----------------------------10-------------------------10---------------
G----------------9-----------11---9-------------------------------------------------------------
D-----9--11---------------------------------11--------------------------------------------------
A------------------------------------------------------------------------------------------------
E------------------------------------------------------------------------------------------------

E-----14b----14------17----16---14---------------14------------------------------------------
B------------------------------------------17---------------17-------14-----17---14-14-14-14
G------------------------------------------------------------------------------------------------
D------------------------------------------------------------------------------------------------
A------------------------------------------------------------------------------------------------
E------------------------------------------------------------------------------------------------

E--------------------14b-----12------------12-----------------------------12-------------------
B----17-----14-----------------------14-------------14-----12-----------------15---14--------
G--------------------------------------------------------------------14------------------14-----
D------------------------------------------------------------------------------------------------
A------------------------------------------------------------------------------------------------
E------------------------------------------------------------------------------------------------

Comments