Red Hot Chili Peppers - Californication Chords & Tabs

 

Californication Chords & Tabs

Red Hot Chili Peppers Chords & Tabs

Version: 4 Type: Tab 0 ratings
1 star 2 stars 3 stars 4 stars 5 stars
comments

Californication Tab

   
D= down stroke
U= up stroke
/= play same chord
*= bend
**= long bend
Verse/Intro
[ Tab from: http://www.guitartabs.cc/tabs/r/red_hot_chili_peppers/californication_tab_ver_4.html ]
-----------------------------------------------------------------------------------------
-----------0--1--------------------------------------------------------------------------
--------------------------------------0--2-----------------------------------------------
-------2---------------------------------------------------------------------------------
---0-----------------------------3-------------------------------------------------------
----------------------------1------------------------------------------------------------
Second Part
-----------0----------------------------------------------------------------------1------
---------------1-----------------0------------------------------------------------3------
--------------------------------------------------------2-----------------2-------2------
------2---------------------0--------0---------------------------------0----------0------
---3----------------------------------------------3-----------3--------------------------
-----------------------3----------------------1------------------------------------------
Chourus
   D  U D D    U D  D U D U     D  U D D   U D   D U D U            D D    D D    D D
---0----------------------------0-----------------------------------0------3------1------
---1----------------------------1-----------------------------------1------3------3------
---2--/-/-/---/-/---/-/-/-/-----2--/-/-/---/-/---/-/-/-/------------0-/----0-/----2-/----
---2----------------------------3-----------------------------------2------0------0------
---0----------------------------0-----------------------------------3------2-------------
---------------------------------------------------------------------------3-------------
              Quick Strokes     Back To Beginning
   D D   D D  D  D  U
---0-----0----3--0--1--------------------------------------------------------------------
---1-----1----3--0--3--------------------------------------------------------------------
---2-/---0-/--0--0--2--------------------------------------------------------------------
---2-----2----0--0--0--------------------------------------------------------------------
---0-----3----2--0-----------------------------------------------------------------------
--------------3--0-----------------------------------------------------------------------

Comments