Red Hot Chili Peppers - Californication Chords & Tabs

 

Californication Chords & Tabs

Red Hot Chili Peppers Chords & Tabs

Version: 15 Type: Tab 0 ratings
1 star 2 stars 3 stars 4 stars 5 stars
comments

Californication Tab

Red Hot Chili Peppers, Californication
Kyle, kyle0evan@aol.com
This is off the new Californication CD.  It's pretty easy to play compared to other Peppers songs.  Well, here it is.


Standard tuning

intro and verse
|-------------------|-----------------------1-|
|-----0-1-----------|-----------------------1-|
|--------------0-2--|-----5--------------2--2-|
|---2---------------|---5-------5-----3-----3-|
|-0----------3------|-3-------5-----3--3----3-|
|----------1--------|-------3-----1---------3-|
[ Tab from: http://www.guitartabs.cc/tabs/r/red_hot_chili_peppers/californication_tab_ver_15.html ]
chorus
strum chords as needed
|-0--1-|-3--3--1--0-|
|-1--1-|-5--3--1--1-|
|-2--2-|-5--4--2--2-|
|-2--3-|-5--5--3--2-|
|-0--0-|-3--5--3--0-|
|------|----3--1----|

Solo              *1                 *1
e|----9---------9-|)-----------------|)----
B|-10---9\7--10---7--7-7p5---------5-7--5--
G|------------------------6-6--4-6-------6-

                       *1
                       |)
e|----9-12-14-----9-12-14--17-16-14-12-14-12----12---
B|-10----------10----------------------------14---14-
G|---------------------------------------------------

                *1
                |)
e|----------12--14-12---12----------12-10-9----|
B|-14-14--14--14------14--14-12-10---------10--|
G|---------------------------------------------|

That's it!

Comments