Red Hot Chili Peppers - Californication Chords & Tabs

 

Californication Chords & Tabs

Red Hot Chili Peppers Chords & Tabs

Version: 1 Type: Tab 16 ratings
1 star 2 stars 3 stars 4 stars 5 stars
comments

Californication Tab

Song: Californication
Artist: Red Hot Chili Peppers
Album: Californication
Submitted and tabbed by Brandon Williams 
e-mail: Bwillia1074@cs.com

This is the correct way to play this song.  Ignore all the other versions!  I found this in the May 2001 issue of Guitar World where John shows how to play the song.  If you think this is wrong, complain to John Frusciante for playing the song wrong...I hope no one does that...

T=thumb

----
----
--/-means to repeat the chord
-/--
----
----

Riff 1:
|--------------------------|
|-------0--1---------------|
|---------------------0--2-|
|----2---------------------|
|-0----------------3-------|
|---------------1----------|

Riff 2:
|-------------------------------1-|
|-------5-----------------------3-|
|----------------4--------2-----2-|
|----5-----------------------0--0-|
|-3-----------5--------3----------|
|----------3--------1-------------|
[ Tab from: http://www.guitartabs.cc/tabs/r/red_hot_chili_peppers/californication_tab.html ]
Riff 3:
|-0------------------------------------0----------3----0------------------|
|-1------------------------------------1----------1----1------------------|
|-2----/--/--/---/---/--/--/---/---/-/-2--/--/--/-2----2--/--/--/----/--/-|
|-2---/--/--/---/---/--/--/---/---/-/--3-/--/--/--3----3-/--/--/----/--/--|
|-0-----------------------------------------------------------------------|
|--------------------------------------1----------1----1------------------|
                                       T          T    T
Riff 4:
|-0-------------3-------------1------------0----0-----------------3-------1-|
|-1-------------0-------------3------------1----1-----------------0-------3-|
|-0----/---/--/-0----/---/--/-2---/--/--/--2----2--/--/---/--/--/-0----/--2-|
|-2---/---/--/--0---/---/--/--0--/--/--/---2----2-/--/---/--/--/--0---/---0-|
|-3-------------2-------------0------------0----0-----------------2-------0-|
|---------------3-------------------------------------------------3---------|
Comments